Song name
# A B C D E F G H I J K L M N O P Q R S T U V W X Y Z

Hole - Dying tab

Hole - Dying (Celebrity Skin)



 Verse Chords (listen for strumming)

e- ---------------------------------------|------------|
B- -3--3--3-------------------------------|------------|
G- -4--0--2-------------------------------|-2----------|
D- -4--0--0-------------------------------|-2----------|
A- -2-----0-------------------------------|-0----------|
E- ----3----------------------------------|------------|


 Chorus

e- ---------------------------------------|------------|
B- (3)(3)-----3--3------------------------|------------|
G- -4--4--0---2--4------------------------|-2----------|
D- -4--4--0---0--4------------------------|-2----------|
A- -2--0--2---0--2------------------------|-0----------|
E- -------3-0-----------------------------|------------|


 Bridge

e- ----------------------------------------------------|
B- ----------------------------------------------------|
G- -7--7-(5)(7)----------------------------------------|
D- -7--7--5--7-----------------------------------------|
A- -5--4--3--5-----------------------------------------|
E- -------0--0-----------------------------------------|


 Ending (listen for strumming)

e- ----------------------------------------------------|
B- -3--8--7--------------------------------------------|
G- -4--9--7--------------------------------------------|
D- -4--9--7--------------------------------------------|
A- -2--7--5--------------------------------------------|
E- ----------------------------------------------------|
Tap to rate this tab
 
# A B C D E F G H I J K L M N O P Q R S T U V W X Y Z