Song name
# A B C D E F G H I J K L M N O P Q R S T U V W X Y Z

Hole - For Once In Your Life tab

Hole - For Once In Your Life (Nobody's Daughter)


Capo on 6th fret

 Intro

e- -0--0--3--3-----------------------------------------|
B- -0--3--3--3-----------------------------------------|
G- -0--2--0--0-----------------------------------------|
D- -2--0--0--0-----------------------------------------|
A- -2--0--2--2-----------------------------------------|
E- -0-----3--3-----------------------------------------|


 Verse

e- ----------------------------------------------------|
B- -3--3--3--3-----------------------------------------|
G- -0--2--0--0-----------------------------------------|
D- -2--0--0--0-----------------------------------------|
A- -2--0--2--2-----------------------------------------|
E- -0-----3--3-----------------------------------------|


 Chorus

e- -0--0--0--3--0--0--3--3-----------------------------|
B- -0--3--0--3--0--3--3--3-----------------------------|
G- -0--2--2--0--0--2--0--0-----------------------------|
D- -2--0--2--0--2--0--0--0-----------------------------| x2
A- -2--0--0--2--2--0--2--2-----------------------------|
E- -0--------3--0-----3--3-----------------------------|


 Bridge

e- -3----3----3----3----3----3----3----2---------------|
B- -3----3----3----3----3----3----3----3---------------|
G- -0----0----0----0----0----0----0----2---------------|
D- -2----2----2----0----2----2----2----0---------------| x2
A- -3----2----3----2----3----2----3--------------------|
E- ------0---------3---------0-------------------------|


 Ending

e- ----------------------------------------------------|
B- -0--0--3--3-----------------------------------------|
G- -0--0--0--0-----------------------------------------|
D- -2--0--0--0-----------------------------------------|
A- -2--2--2--2-----------------------------------------|
E- -0--2--3--3-----------------------------------------|


Intro x4
Verse x2
Intro x4
Verse x4
Intro x2
Chorus
Bridge
Verse x2
Intro x8
Chorus
Ending x6

 End On

e- ---
B- -3-
G- -0-
D- -2-
A- -2-
E- -0-
Tap to rate this tab
# A B C D E F G H I J K L M N O P Q R S T U V W X Y Z