Song name
# A B C D E F G H I J K L M N O P Q R S T U V W X Y Z

Hole - Honey tab

Hole - Honey (Nobody's Daughter)

 Intro/Verses Chords

e- -3----3----3----3-----------------------------------|
B- -3----3----3----3-----------------------------------|
G- -0----0----0----2-----------------------------------|
D- -0----2----2----2-----------------------------------|
A- -2----3----2----0-----------------------------------|
E- -3---------0----------------------------------------|


 Chorus Chords

e- -3----3----3----3----3----3----3----3---------------|
B- -3----3----3----3----3----3----3----3---------------|
G- -0----0----0----0----0----0----0----0---------------|
D- -2----0----2----0----2----2----2----2---------------|
A- -3----2----3----2----3----2----3----2---------------|
E- ------3---------3---------0---------0---------------|


 Bridge 1 Chords

e- (0----0----3----0----0----0----3----3--0)-----------|
B- -0----1----3----3----0----1----3----3--3------------|
G- -1----2----0----2----1----2----0----0--2------------|
D- -2----2----0----0----2----2----2----0--0------------|
A- -2----0----2----0----2----0----3----2--0------------|
E- -0---------3----2----0--------------3--2------------|


 Solo Rhythm Chords

e- (0-0-0-0-0-0-0-0-0-0-0)|(3--3)----------------------|
B- -0-1-0-1-0-3-3-3-0-0-0-|-3--3-----------------------|
G- -2-2-2-2-2-0-0-0-0-0-0-|-0--0-----------------------|
D- -2-2-2-2-2-2-2-2-2-2-2-|-2--0-----------------------| x3
A- -0-0-0-0-0-2-2-2-2-2-2-|-3--2-----------------------|
E- -----------------0-0-0-|----3-----------------------|

e- (0-0-0-0-0-0-0-0-0-0-0)|(3--3)----------------------|
B- -0-1-0-1-0-3-3-3-0-0-0-|-3--3-----------------------|
G- -2-2-2-2-2-0-0-0-0-0-0-|-0--2-----------------------|
D- -2-2-2-2-2-2-2-2-2-2-2-|-2--0-----------------------|
A- -0-0-0-0-0-2-2-2-2-2-2-|-3--------------------------|
E- -----------------0-0-0-|----------------------------|


 Bridge 2 Chords

e- (0----0----3----0----0----0----3----3)--------------|
B- -0----1----3----3----0----1----3----3---------------|
G- -1----2----0----2----1----2----0----2---------------| x2
D- -2----2----0----0----2----2----0----2---------------|
A- -2----0----2----0----2----0----2----0---------------|
E- -0---------3----2----0---------3--------------------|


 Ending Chords

e- -0----0----3----0----0----0----3---|3---------------|
B- -0----1----3----3----0----1----3---|3---------------|
G- -1----2----0----2----1----2----0---|0---------------|
D- -2----2----0----0----2----2----0---|0---------------|
A- -2----0----2----0----2----0----2---|2---------------|
E- -0---------3----2----0---------3---|3---------------|
Tap to rate this tab
 
# A B C D E F G H I J K L M N O P Q R S T U V W X Y Z