Song name
# A B C D E F G H I J K L M N O P Q R S T U V W X Y Z

Hole - I Think That I Would Die tab

Hole - I Think That I Would Die (Live Through This)

 Main Riff

e- ----------------------------------------------------|
B- ----------------------------------------------------|
G- --------------0-------------------------------------|
D- -----0------0---0-----------------------------------|
A- ---1---1--2-----------------------------------------|
E- -0----------------3---------------------------------|


 i want my baby...

e- ----3-----------------------------------------------|
B- -3--3--3--------------------------------------------|
G- -0--0--0--------------------------------------------|
D- -0--0--0--------------------------------------------|
A- -1--2--2--------------------------------------------|
E- (0)----3--------------------------------------------|


 Bridge 1 Chords (rose white rose red...)

e- -----0-----0----------7--7--------------------------|
B- ---6-----6-----6------6--6--------------------------|
G- -7-----7-----7-x-7-5--5--5--------------------------|
D- -0-----8-----8-8-8-8-(8)(8)-------------------------| repeat as many as necessary
A- ----------------------------------------------------|
E- ----------------------------------------------------|


 Chorus Chords (there is no milk)

e- ----------------------------------------------------|
B- ----------------------------------------------------|
G- ----------------------------------------------------|
D- -3--4-----------------------------------------------|
A- -1--2--5--------------------------------------------|
E- -------3--------------------------------------------|


 Bridge 2 Riff (it's...not...yours...)

e- ----------------------------------------------------|
B- ----------------------------------------------------|
G- ---------0------------------------------------------|
D- -----0---0------------------------------------------|
A- ---1---1-2------------------------------------------|
E- -0--------------------------------------------------|
Tap to rate this tab
# A B C D E F G H I J K L M N O P Q R S T U V W X Y Z