Song name
# A B C D E F G H I J K L M N O P Q R S T U V W X Y Z

Hole - Jennifers Body tab

Hole - Jennifer's Body (Live Through This)

 Intro Riff Chords

e- (0--0---0---0)--------------------------------------|
B- (0--0---0---0)--------------------------------------|
G- (0--0---0---0)--------------------------------------|
D- -6--9--(0---0)--------------------------------------|
A- -7--10--9---6---------------------------------------|
E- (0)(0)--10--7---------------------------------------|


 Verse Chords
                           |right before chorus
e- (0----0----0----0)------|(0----0)-----------------|
B- (0----0----0----0)------|(0----0)-----------------|
G- (0----0----0----0)------|(0----0)-----------------|
D- -6/---9---(0----0)------|(6/---9------------------|
A- -7/---10---9-/--6-------|(7/---10---9-------------|
E- -----------10/--7-------|-----------10------------|


 Chorus Chords

e- ----------------------------------------------------|
B- ----------------------------------------------------|
G- ----------------------------------------------------|
D- -9/---12--------------------------------------------|
A- -7/---10----12/---9---------------------------------|
E- ------------10/---7---------------------------------|


 found pieces of jennifer's body...

e- ----------------------------------------------------|
B- --(0)--(0)--(0)--(0)--------------------------------|
G- ----------------------------------------------------|
D- -4---------7----------------------------------------|
A- -2----5----5----7-----------------------------------|
E- ------3---------5-----------------------------------|

 then you just strum the B string after the bass[] plays each note

e- ----------------------------------------------------|
B- ---0-00--0-00--0-00--0-00---------------------------|
G- ----------------------------------------------------|
D- ----------------------------------------------------|
A- [2]---------[5]-------------------------------------|
E- ------[3]---------[5]-------------------------------|

 then

e- ----------------------------------------------------|
B- ----------------------------------------------------|
G- ----------------------------------------------------|
D- -4---------7----------------------------------------|
A- -2----5----5----------------------------------------|
E- ------3---------------------------------------------|
Tap to rate this tab
# A B C D E F G H I J K L M N O P Q R S T U V W X Y Z