Song name
# A B C D E F G H I J K L M N O P Q R S T U V W X Y Z

Hole - Malibu tab

Hole - Malibu (Celebrity Skin)

 Verse

e- -----------0----0-----------------------------------|
B- -7----7----3----2-----------------------------------|
G- -7----7----4----2-----------------------------------|
D- -5---(0)---4----2-----------------------------------|
A- -7----5----2----0-----------------------------------|
E- (0)-------------------------------------------------|

 Chorus (listen for right strumming)

e- -------3-------0----2---(0)-------------------------|
B- -------3-------0----3---(2)-------------------------|
G- -------0-------0----2----2--------------------------|
D- -------0-------2----0----2--------------------------|
A- -------2-------2---------0--------------------------|
E- -0-2-3-3-3-2-0-0------------------------------------|

 Bridge (listen for right strumming)

e- (0)--(0)--(0)(0-0-0-0)------------------------------|
B- -1----3----2--3-2-0-2-------------------------------|
G- -2----2----2--2-2-2-2-------------------------------|
D- -0----0----2--2-2-2-2-------------------------------| x4
A- -3---------0--0-0-0-0-------------------------------|
E- ----------------------------------------------------|

e- (0)--(0)--(0)(0-0-0-0)------------------------------|
B- -1----3----2--3-2-0-2-------------------------------|
G- -2----2----2--2-2-2-2-------------------------------|
D- -0----0----2--2-2-2-2-------------------------------|
A- -3----0----0--0-0-0-0-------------------------------|
E- -3----2---------------------------------------------|

e- (0)--(0)--(0)(0)------------------------------------|
B- -1----3----2-(0)------------------------------------|
G- -2----2----2--1-------------------------------------|
D- -0----0----2--2-------------------------------------|
A- -3----0----0--2-------------------------------------|
E- -3----2-------0-------------------------------------|

 End On

e- -2-
B- -3-
G- -2-
D- -0-
A- ---
E- ---
Tap to rate this tab
# A B C D E F G H I J K L M N O P Q R S T U V W X Y Z