Song name
# A B C D E F G H I J K L M N O P Q R S T U V W X Y Z

Hole - Miss World tab

Hole - Miss World (Live Through This)

Intro/Ending Chords


e- -3--2-(0)(0)-----------|-(0)(0)(0)(0)----------------|
B- -3--3--3--3------------|--3--3--3--3-----------------|
G- -0--2--2--0------------|--0--2--2--0-----------------|
D- -0--0--3--2------------|--0--0--3--2-----------------|
A- -2----(0)-3------------|--2----(0)-3-----------------|
E- -3-------(0)-----------|--3-------(0)----------------|


Verse Chords
(listen for strumming)

e- -3-/-5-/-7---7-/-5-/-3-------------------------------|
B- -3-/-5-/-7---7-/-5-/-3-------------------------------|
G- -0-/-0-/-0---0-/-0-/-0-------------------------------|
D- -0-/-0-/-0---6-/-4-/-2-------------------------------|
A- -2-/-4-/-6---7-/-5-/-3-------------------------------|
E- -3-/-5-/-7-------------------------------------------|


Chorus Chords


e- -----------------------------------------------------|
B- -----------------------------------------------------|
G- -----------------------------------------------------|
D- -------------9---7---5-------------------------------|
A- -5---7---9---7---5---3-------------------------------|
E- -3---5---7-------------------------------------------|
Tap to rate this tab
# A B C D E F G H I J K L M N O P Q R S T U V W X Y Z