Song name
# A B C D E F G H I J K L M N O P Q R S T U V W X Y Z

Hole - Petals tab

Hole - Petals (Celebrity Skin)


 Intro

e- -0----0----0----0-----------------------------------|
B- -0----0----0----0-----------------------------------|
G- -0----0----0----0-----------------------------------|
D- -2----2----2----2-----------------------------------|
A- -3----2----3----2-----------------------------------|
E- ------0---------0-----------------------------------|


 Verse x2

e- -0----0----0----0----0-----0----0----0--------------|
B- -0----0----0----0----0-----0----0----0--------------|
G- -0----0----0----0----0-----0----2----2--------------|
D- -2----2----2----2----2-----2----2----2--------------|
A- -3----2----3----2----3-----2----0----0--------------|
E- ------0---------0----------0------------------------|


 Chorus 1

e- ---0-----0-----0-----0-----0-----0-----0-----0------|
B- ----0-----0-----0-----0-----0-----0-----0-----0-----|
G- -----0-----0-----0-----0-----0-----0-----0----------|
D- -2-----5-----------------2-----5--------------------|
A- -0-----3-----2-----2-----0-----3-----2-----2--------|
E- -------------0-----0-----------------0-----0--------|

e- ---0-----0-----0-----0-----0-----0-----0-----0------|
B- ----0-----0-----0-----0-----0-----0-----0-----------|
G- -----0-----0-----0-----0-----0-----0-----0----------|
D- -2-----5-----------------2-----5--------------------|
A- -0-----3-----2-----2-----0-----3-----2-----2--------|
E- -------------0-----0-----------------0-----0--------|


 Verse x2

 Chorus 2

e- ---0-----0-----0-----0-----0-----0-----0-----0------|
B- ----0-----0-----0-----0-----0-----0-----0-----0-----|
G- -----0-----0-----0-----0-----0-----0-----0----------|
D- -2-----5-----------------2-----5--------------------|
A- -0-----3-----2-----2-----0-----3-----2-----2--------|
E- -------------0-----0-----------------0-----0--------|

e- ---0-----0-----0-----0-----0-----0------------------|
B- ----0-----0-----0-----0-----0-----0-----------------|
G- -----0-----0-----0-----0-----0-----0----------------|
D- -2-----5-----------------2-----5--------------------|
A- -0-----3-----2-----2-----0-----3--------------------|
E- -------------0-----0--------------------------------|


 Bridge

e- ----------------------------------------------------|
B- ----------------------------------------------------|
G- ----------------------------------------------------|
D- ------2---------2---------2-------------------------|
A- -2----0----2----0----2----0-------------------------|
E- -0---------0---------0------------------------------|

e- (0)--(0)--(0)--(0)--(0)--(0)--(0)--(0)--(0)--(0)----|
B- (0)--(0)--(0)--(0)--(0)--(0)--(0)--(0)--(0)--(0)----|
G- (0)--(0)--(0)--(0)--(0)--(0)--(0)--(0)--(0)--(0)----|
D- -5---(2)---5---(2)---7----2----7---(2)--(5)---2-----|
A- -3----2----3----2----5----0----5----2----3----0-----|
E- ------0---------0-------------------0---------------|

e- (0)--(0)--(0)---0)----------------------------------|
B- (0)--(0)--(0)---0)----------------------------------|
G- (0)--(0)--(0)---0)----------------------------------|
D- -2----5----5----2-----------------------------------|
A- -0----3----3----0-----------------------------------|
E- ----------------------------------------------------|


 Verse


 Chorus 3

e- ---0-----0-----0-----0-----0-----0-----0-----0------|
B- ----0-----0-----0-----0-----0-----0-----0-----0-----|
G- -----0-----0-----0-----0-----0-----0-----0----------|
D- -2-----5-----------------2-----5--------------------|
A- -0-----3-----2-----2-----0-----3-----2-----2--------|
E- -------------0-----0-----------------0-----0--------|

e- ---0-----0-----0-----0-----0-----0-----0-----0------|
B- ----0-----0-----0-----0-----0-----0-----0-----------|
G- -----0-----0-----0-----0-----0-----0-----0----------|
D- -2-----5-----------------2-----5--------------------|
A- -0-----3-----2-----2-----0-----3-----2-----2--------|
E- -------------0-----0-----------------0-----0--------|

e- ---0-----0-----0-----0-----0-----0--(0)-------------|
B- ----0-----0-----0-----0-----0-----0-(0)-------------|
G- -----0-----0-----0-----0-----0-----0(0)-------------|
D- -2-----5-----------------2-----5----(2)-------------|
A- -0-----3-----2-----2-----0-----3-----2--------------|
E- -------------0-----0-----------------0--------------|
Tap to rate this tab
 
# A B C D E F G H I J K L M N O P Q R S T U V W X Y Z