Song name
# A B C D E F G H I J K L M N O P Q R S T U V W X Y Z

Hole - Playing Your Song tab

Hole - Playing Your Song (Celebrity Skin)


 Riff Lead

e- -----------------------------------------------------------------|
B- -------9-----9-7~----5-5--5-3~------9-----9-7~----5-5~-----------|
G- ----10---10--------6-------------10---10--------6----------------|
D- -11--------------7------------11--------------7------------------|
A- -----------------------------------------------------------------|
E- -----------------------------------------------------------------|


 Riff Rhythm

e- -----------------------------------------------------------------|
B- -----------------------------------------------------------------|
G- -----------------------------------------------------------------|
D- -6----------------------------6----------------------------------|
A- -4---------------7------------4----------------7-----------------|
E- -----------------5-----------------------------5-----------------|


 Verse

e- -----------------|
B- -----------------|
G- -----------------|
D- -6-----6---7-6---| x2
A- -4--7--4-7-5-4---|
E- ----5----5-------|


 Chorus

e- -----------------|
B- -----------------|
G- -----------------|
D- -7-6---7---7-6---| x2
A- -5-4-7-5-7-5-4---|
E- -----5---5-------|


 Bridge

e- ------------------------------------------------------------------|
B- -------9------------------9----------------5------------4---------|
G- ----10---10----10------10---10----10-----6---6---6----5---5---5-6-|
D- -11----------11--11-11----------11--11-7--------7-7-6--------6----| x4
A- ------------------------------------------------------------------|
E- ------------------------------------------------------------------|


 Last Chorus

e- ------------------|
B- ------------------|
G- ------------------|
D- -7-6---7---7-6----| x4
A- -5-4-7-5-7-5-4----|
E- -----5---5--------|

e- ------------------|
B- ------------------|
G- ------------------|
D- ---7-6------------| x3
A- -7-5-4------------|
E- -5----------------|
Tap to rate this tab
# A B C D E F G H I J K L M N O P Q R S T U V W X Y Z