Song name
# A B C D E F G H I J K L M N O P Q R S T U V W X Y Z

Hole - Plump tab

Hole - Plump (Live Through This)


 Intro/Main Riff

e- ----------------------------------------------------|
B- ----------------------------------------------------|
G- ----------------------------2-2---------------------|
D- ----------------------------2-2---------------------|
A- -4-4-4444-4-4-4444-4-4-4444-0-0-2-2-----------------|
E- -2-2-0000-2-2-0000-2-2-0000-----0-0-----------------|


 Chorus

e- ----------------------------------------------------|
B- ----------------------------------------------------|
G- -9-9-7-7---9-9-7-7---9-9-7-7---9-9-7-7--------------|
D- -9-9-7-7---9-9-7-7---9-9-7-7---9-9-7-7--------------|
A- -7-7-5-5---7-7-5-5---7-7-5-5---7-7-5-5--------------|
E- ------------------------(0-0)-----(0-0)-------------|


 Pre-Bridge

e- ----------------------------------------------------|
B- ----------------------------------------------------|
G- -------------------2-2-2-2--------------------------|
D- -------------------2-2-2-2--------------------------|
A- -4-4-4444-4-4-4444-0-0-0-0--------------------------|
E- -2-2-0000-2-2-0000----------------------------------|


 Bridge Chords

e- -(2)-(3)--------------------------------------------|
B- --3---3---------------------------------------------|
G- --4---0---------------------------------------------|
D- --4---0---------------------------------------------|
A- --2---2---------------------------------------------|
E- ------3---------------------------------------------|


 Ending

e- ----------------------------------------------------|
B- ----------------------------------------------------|
G- -------------------2-2-2-2-2/14---------------------|
D- -------------------2-2-2-2-2/14---------------------|
A- -4-4-4444-4-4-4444-0-0-0-0-0------------------------|
E- -2-2-0000-2-2-0000----------------------------------|
Tap to rate this tab
# A B C D E F G H I J K L M N O P Q R S T U V W X Y Z