Song name
# A B C D E F G H I J K L M N O P Q R S T U V W X Y Z

Hole - Use Once And Destroy tab

Hole - Use Once And Destroy (Celebrity Skin)

 Riff

e- -----------------------------------------------------------------|
B- --------12-------------10----------------------------------------|
G- ----11------11-----11------11------------------------------------|
D- -9--------------9------------------------------------------------|
A- -----------------------------------------------------------------|
E- -----------------------------------------------------------------|


 Verse


e- -----------------------------------------------------------------|
B- -------12-10-10------------------------10-12-10------------------|
G- -11-x8-11-11-11-11-x5-11-x8-9-x8-11-x8-11-11-11-x6-11-x8-9-x8----|
D- -9-----9--9--9--9-----9-----7----9-----9--9--9-----9-----7-------| x2
A- -----------------------------------------------------------------|
E- -----------------------------------------------------------------|

e- -----------------------------------------------------------------|
B- -----------------------------------------------------------------|
G- -11-x8-9-x4-14-x4------------------------------------------------|
D- -9-----7----12---------------------------------------------------|
A- -----------------------------------------------------------------|
E- -----------------------------------------------------------------|

 Pre-Chorus

e- -----------------------|------------------------------------------|
B- -------------------(x3)|------------------------------------------|
G- -11-x8-9-x4-14-x4------|-11-x8-9-x4-14-14-14\---------------------|
D- -9-----7----12---------|-9-----7----12-12-12\---------------------|
A- -----------------------|------------------------------------------|
E- -----------------------|------------------------------------------|


 Chorus

e- ------------------------------|----------------------------------|
B- ------------------------------|----------------------------------|
G- --------------------------(x3)|----------------------------------|
D- ------5-x4--------------------|------5-x4------------------------|
A- -2-x4-3----5-x4-5--4----------|-2-x4-3----5-x4-5--7--------------|
E- -0---------3----3--2----------|-0---------3----3--5--------------|


 Post-Chorus

e- -----------------------------------------------------------------|
B- --------12-------------10-------------12------------12-10--------|
G- ----11------11-----11------11-----11------11-----11-------11-----|
D- -9--------------9--------------9--------------9------------------|
A- -----------------------------------------------------------------|
E- -----------------------------------------------------------------|

e- ----------------------------------------------------12-11--------|
B- --------12-------------10-------------12------------------12-----|
G- ----11------11-----11------11-----11------11-----11--------------|
D- -9--------------9--------------9--------------9------------------|
A- -----------------------------------------------------------------|
E- -----------------------------------------------------------------|


 Riff


 Verse 2

e- -----------------------------------------------------------------|
B- -------12-10-10------------------------10-12-10------------------|
G- -11-x8-11-11-11-11-x5-11-x8-9-x8-11-x8-11-11-11-x6-11-x8-9-x8----|
D- -9-----9--9--9--9-----9-----7----9-----9--9--9-----9-----7-------|
A- -----------------------------------------------------------------|
E- -----------------------------------------------------------------|

e- -----------------------------------------------------------------|
B- -----------------------------------------------------------------|
G- -11-x8-9-x4-14-x4------------------------------------------------|
D- -9-----7----12---------------------------------------------------|
A- -----------------------------------------------------------------|
E- -----------------------------------------------------------------|


 Pre-Chorus


 Chorus


 Post-Chorus (x2)


 Bridge

e- -----------------------------------------------------------------|
B- -----------------------------------------------------------------|
G- -11-x8-9-x8-11-x16-11-x8-9-x8-11-x16-11-x8-9-x16-9-x4-14-14-14\--|
D- -9-----7----9------9-----7----9------9-----7-----7----12-12-12\--|
A- -----------------------------------------------------------------|
E- -----------------------------------------------------------------|


 Last Chorus

e- ------------------------------|----------------------------------|
B- ------------------------------|----------------------------------|
G- --------------------------(x3)|----------------------------------|
D- ------5-x4--------------------|------5-x4------7-----------------|
A- -2-x4-3----5-x4-5--4----------|-2-x4-3----5-x4-5--7--------------|
E- -0---------3----3--2----------|-0---------3-------5--------------|

e- -----------------------------------------------------------------|
B- -----------------------------------------------------------------|
G- -----------------------------------------------------------------|
D- -5-x4------7-x4-7--7--5-x4------7-x4-7--8------------------------|
A- -3----5-x4-5----5--5--3----5-x4-5----5--6------------------------|
E- ------3--------------------3-------------------------------------|

e- -----------------------------------------------------------------|
B- -----------------------------------------------------------------|
G- -----------------------------------------------------------------|
D- ------5-x4------7-----5-x4------7--------------------------------|
A- -2-x4-3----5-x4-5--7--3----5-x4-5--------------------------------|
E- -0---------3-------5-------3-------------------------------------|
Tap to rate this tab
# A B C D E F G H I J K L M N O P Q R S T U V W X Y Z