Song name
# A B C D E F G H I J K L M N O P Q R S T U V W X Y Z

Hole - Good Sister Bad Sister tab

Chorus: (x4)

E---------------------------------------------|
B---------------------------------------------|
G---------------------------------------------|
D--2-2-2--------------------------------------|
A--2-2-2--3-3-3---6--6--5---6--6--------------|
E--0-0-0--3-3-3---6--6--6---6--6--6-----------|

(6-6-5-6-6-5-6 on the last time)

Verse: (x4)

E------------------------------------------------------------|
B------------------------------------------------------------|
G------------------------------------------------------------|
D--2-2-2-2--2-2--3-3-3-3-3-3--5-5-5-5-5-5--5-5-5-5--5--5-----|
A--2-2-2-2--2-2--3-3-3-3-3-3--5-5-5-5-5-5--6-6-6-6--6--6-----|
E--0-0-0-0--0-0--3-3-3-3-3-3--5-5-5-5-5-5--6-6-6-6--6--6-----|

Chorus: x 4

Verse: x 4

Bridge: (x4)

E-----------------------------0-----------0----|
B---------------------------2----------2---2---|
G------------------------0-----------0-------0-|
D--4-4-4-4-4-4-4-4-----------------------------|
A--4-4-4-4-4-4-4-4-----------------------------|
E--2-2-2-2-2-2-2-2-----------------------------|


Chorus: x 4

Verse: x 4

All of bridge: x 2

Outro:

E------------|
B------------|
G--2-2-2-----|
D--2-2-2-----|
A--0-0-0-3---|
E--------3---|

Let feedback
Tap to rate this tab
 
# A B C D E F G H I J K L M N O P Q R S T U V W X Y Z