Guitaretab - guitar tabs
Song name
# A B C D E F G H I J K L M N O P Q R S T U V W X Y Z

Hole - I Think That I Would Die tab

----------------------------------------------------------------------------
			     I THINK THAT I WOULD DIE - Hole
----------------------------------------------------------------------------
Tabbed by: illy93
Tuning: Standard

All the tabs I've seen around here are kinda right for some parts...but none of them 
the full song and so here it is accurately!

Verse Riff:

e|---------------|
B|---------------|
G|---------0-----|
D|----0---0------|
A|---1-1-2-------|
E|--0--------0-3-|

...then it moves on to this...

Pre-Chorus: "I want my baby..."
e|----------------3--3-33--|
B|-----------0----3--3-33--|
G|--00000-0000----0--0-00--|
D|--00000-0000---------00--|
A|--11111-2222-2-2--2--22--|
E|-------------3-3--3--33--|
[ Tab from: http://www.guitaretab.com/h/hole/8382.html ]
Chorus Number 1: "Rose White, Rose Red..."
   Dm F          A# C         Dm F         F  C
e|--5------------6--8--8--8---5-------------------------|
B|--6--10-10-10--6--8--8--8---6--10-10-10--10-5-5-5-5---|
G|--7--10-10-10--7--9--9--9---7--10-10-10--10-5-5-5-5---|
D|--7--10-10-10--8--10-10-10--7--10-10-10--10-5-5-5-5---|
A|--5--8--8--8---8--10-10-10--5--8--8--8---8--3-3-3-3---|
E|---------------6--8--8--8-----------------------------|
...for the very last C in the chorus strum 16 times

'Solo' at the end of 2nd chorus number 1:
e|------6663-------|
B|--333------6365--|
G|-----------------|
D|-----------------|
A|-----------------|
E|-----------------|

Chorus Number 2: "There is no milk!"
e|---------------------|
B|---------------------|
G|---------------------|
D|--8-8888--9-9999--5--|
A|--8-8888--9-9999--5--|
E|--6-6666--7-7777--3--|

Bridge: "She lost all her innocence..."
e|----------------------------------|
B|----------------------------------|
G|----------------------------------|
D|-5-5555---5-5555---5-5555---7-5---|
A|-5-5555---5-5555---5-5555---7-5---|
E|-3-3333-0-3-3333-0-3-3333-0-5-3---|

Then...
e|--------|
B|--------|
G|--------|
D|---0-2--|
A|--1-1---|
E|-0------|

Outro: just repeats and fades out from here...

e|-----------------------|
B|-----------------------|
G|--77-444-5-55-4-44-----|
D|-------------------5---|
A|-----------------------|
E|-----------------------|

OK, that's it. Most tabs have the main riff as an arpeggiated A#5-B5-G5 chord 
and don't even have the outro so, yeah, this is the whole Hole song.
Related for I Think That I Would Die tab
×
I Think That I Would Die