Song name
# A B C D E F G H I J K L M N O P Q R S T U V W X Y Z

Hole - I Think That I Would Die tab

#


From EndofMsic@aol.com Fri Apr 18 10:49:03 1997
Date: Mon, 17 Mar 1997 00:08:13 -0500 (EST)
From: EndofMsic@aol.com
To: rcwoods@olga.net
Subject: Tab: "I think that i would die" by "Hole"

"I Think That I would Die" by Hole, off of Live Throught This
written by Hole and K. Bjelland of babes in Toyland

There are several other versions of this song on OLGA, but none of htem
sounded right in my opinion.  Here's the version I tabbed for the song: (Drop
D tuning)

E----------------------------------------------------------------------------
B----------------------------------------------------------------------------
G-------------------------------------------------0-------------------------
D---------------------0--------------------0------------0------------------
A---------------1-----------1--------2-------------------------------------
E-------0-----------------------------------------------------------3-------

These are the chords that follow:

Dm (xx0231)
Bb (xx2341)
Bb (xx2341)
C  (032010)


E-----------------------------------------------------------------------------
---------------
B-----------------------------------------------------------------------------
----------------
G-----------------------------------------------------------------------------
----------------
D---------3----3----3----3-------------4----4----4----4-----------------------
-----------
A---------1----1----1----1-------------2----2----2----2-------------5----5----
5----5--
E-------------------------------------------------------------------------3---
-3----3----3--

That was my interpretation of it. Questions / Comments
EndofMsic@aol.com
Tap to rate this tab
 
# A B C D E F G H I J K L M N O P Q R S T U V W X Y Z