Song name
# A B C D E F G H I J K L M N O P Q R S T U V W X Y Z

Hole - She Walks Over Me tab

pretty sure this is right, email me if it needs correcting sashamo66@gmail.com

structure:

Intro x3
verse/chorus x18
bridge x4
verse/chorus x10
bridge x5
intro x3
verse/chorus x11

Intro
e---------------------    -----------------------------------------------|
B---------------------    -----------------------------------------------|
G----------7h8-7-7-7-- x3 -77778888999910-10-10-10-11-11-12-12-12-12-13b-|
D---------------------    -----------------------------------------------|
A--7h9-9-9------------    -----------------------------------------------|
E---------------------    -----------------------------------------------|


strum and repeat as needed
Verse/Chorus
e--------------|
B--------------|
G------9--8----|
D---7--9--8--9-|
A---7--7--6--9-|
E---5--------7-|


Bridge
e----------------|
B----------------|
G----------------|
A--7-777-----10--|
D--7-777-----10--|
E--5-555-----8---|
Tap to rate this tab
# A B C D E F G H I J K L M N O P Q R S T U V W X Y Z