Song name
# A B C D E F G H I J K L M N O P Q R S T U V W X Y Z

Hole - Drunk In Rio tab

-------------------------------------------------------------------------------
			     DRUNK IN RIO - Hole
-------------------------------------------------------------------------------
Tabbed by: Cjohnson
Email: cjohnson2492@gmail.com

Tuning:eBGDAE


   A           G   Cmaj7
e|---------------------------------------------------------------------------|
B|-2-2-2-2-2-2---0---0-------------------------------------------------------|
G|-2-2-2-2-2-2---0---0-------------------------------------------------------|
D|-2-2-2-2-2-2---0---2-------------------------------------------------------|
A|-0-0-0-0-0-0---2---3-------------------------------------------------------|
E|-------------3---0---------------------------------------------------------|
Tap to rate this tab
# A B C D E F G H I J K L M N O P Q R S T U V W X Y Z