Song name
# A B C D E F G H I J K L M N O P Q R S T U V W X Y Z

Hole - Starbelly tab

------------------------------------------------------------------------------
			     STARBELLY - Hole
-------------------------------------------------------------------------------
Tabbed by:
Email: cjohnson2492

Tuning: Normal Tuning
  
  A5 B5         G#5 G5 E5
e|---------------------------------------------------------------------------|
B|---------------------------------------------------------------------------|
G|---4-4-4-4-x-4-------------------------------------------------------------|
D|-7-4-4-4-4-x-4-7-6-4-2-2-2-------------------------------------------------|
A|-7-2-2-2-2-x-2-7-6-4-2-2-2-------------------------------------------------|
E|-5-------------5-4-2-0-0-0-------------------------------------------------|


B5
---
---
---
-9-
-9-
-7-

This can be used instead of the other B5 if you like, it's basically
the same.

| /  slide up
| \  slide down
| h  hammer-on
| p  pull-off
| ~  vibrato
| +  harmonic
| x  Mute note
===============================================================================
Tap to rate this tab
# A B C D E F G H I J K L M N O P Q R S T U V W X Y Z