Song name
# A B C D E F G H I J K L M N O P Q R S T U V W X Y Z

Holiday Parade - Crimson Red tab

Help us improve GuitareTab! Take a short survey!
I'm pretty sure this is what Rohan plays, I've seen them live 4 times, so I combined 
I saw him do and what I think sounds right.  This is my first tab, so be nice and support 
They're a great band! wwww.myspace.com/holidayparade

e|------------------------------|
B|----------1-----3--1----------|
G|-------0-----0-------0--------|
D|--2h3-------------------------| (x3)
A|------------------------------|
E|------------------------------|

last time:

e|----------------0-------------|
B|----------1-------------------|
G|-------0-----0----------------|
D|--2h3-------------------------| (x1)
A|------------------------------|
E|------------------------------|


Acoustic wise, the song is a C, G, Am, and F progression, played like this:

   C        G        Am         F
x32013    320013    x02213    xx3213

At least thats how I hear it.

For the first part of the first verse and the Bridge with Will of Cartel, just repeat the C chord.
Related for Crimson Red tab