Song name
# A B C D E F G H I J K L M N O P Q R S T U V W X Y Z

Holiday - O Holy Night tab

I have been searching for "O Holy Night" either in Guitar lead sheet format or Guitar tabs (Melody) to do for my Guitar Final, and have found neither. I have only been playing
guitar for 10 weeks, but I was determined to learn this wonderful song.  So I stayed up
until 2:30am this morning searching my guitar for the notes. I thought I would share
with all of you as I have heard others have also been seeking this song.  I hope you
enjoy my interpretation.

P.j. Rambo
Guitar Student/Pierce College


                                 O Holy Night

e---------------|-----------1---|--------------|--------------|
B--------1------|-1-3-3---3---1-|---1----------|------1-------|
G-2-2-2--------|-------3--------|-----2-0------|--2-3---3-0---|
D---------------|---------------|---------3----|------------3-|
A---------------|---------------|--------------|--------------|
E---------------|---------------|--------------|--------------|
 
e---------------|-----------1---|--------------|-------1-0----|--------------|
B--------1------|-1-3-3---3---1-|---1-----5----|---3-5--------|-------3------|
G-2-2-2---------|-------3-------|-----4-2------|-5---------2--|---5-5---0----|
D---------------|---------------|--------------|--------------|--------------|
A---------------|---------------|--------------|--------------|--------------|
E---------------|---------------|--------------|--------------|--------------|

e---------------|---------------|-------1------|---1----------|---3-------1--|
B-------6-------|-------3-------|--------------|-----5-3-5----|-5---3-3-3---6|
G-5-7-5---2-7-5-|---5-5---0-----|-5-7-5---2-5--|--------------|--------------|
D---------------|---------------|--------------|--------------|--------------|
A---------------|---------------|--------------|--------------|--------------|
E---------------|---------------|--------------|--------------|--------------|

e-----5-3-------|---------------|--------------|---1-3---5----|---6-5-3-1----|
B---6-----1-6---|----5-3-1------|---1-3-1-1----|-------1------|--------------|
G---------------|---------------|--------------|--------------|--------------|
D---------------|---------------|--------------|--------------|--------------|
A---------------|---------------|--------------|--------------|--------------|
E---------------|---------------|--------------|--------------|--------------|


e---0-1-3-1-----|
B---------------|             THE END
G---------------|
D---------------|
A---------------|
E---------------|

Tap to rate this tab
# A B C D E F G H I J K L M N O P Q R S T U V W X Y Z