Song name
# A B C D E F G H I J K L M N O P Q R S T U V W X Y Z

Holiday - Ill Be Home For Christmas tab

Aly and Aj
I'll be home for Christmas
Acoustic Nights Of Winter
2006 Hollywood Records
Submitted by: paramore_fans@yahoo.com
In this song, you will learn your plucking skills. This song is very difficult to play
you only stucked into a standard EADGBe tuning, that's why I decided to tune it in drop D
get the lower D#. Both Aly and Aj have a great plucking skills. Only a few girls can do 
they can. They can also play in Drop D tuning.


Aj will be the lead soloist here, she's idle in almost all parts except the solo
I am lazy to tab the piano part in chorus, you can figure it out


Tuning: Drop D, both Aly and Aj

Chords used: (drop D only)
B -      x24442
F#/Bb -  x143xx
G#m -    6664xx
D#m -    114xxx
C# -     x46664
F# -     444322
G# -     6665xx
G#7 -    6645xx
C#7 -    x46464
C# -     x46664
C#sus4 - x46674
Bbm -    x13321
Bm -     x24432
D# -     111xxx
D#7 -    11102x
A7 -     x02020

Intro:
    B          F#/Bb      G#m     D#m       G#m         C#      F#
I'm dreaming tonight Of a place I love Even more than I usually do

Aly:
e|-------|-------|-------|-------|---------|-------|---------|
B|-----4-|-----2-|-------|-------|---------|-------|---------|
G|-------|-------|-----4-|-----3-|-------4-|-----6-|-------3-|
D|---4---|---4---|-------|---1---|-----4---|---6---|-----6---|
A|-2-----|-1-----|---6---|-------|---6-----|-4-----|---4-----|
D|-------|-------|-6-----|-1-----|-6-------|-------|-4-------|
then
      B        F#/Bb       G#m       D#m  G#7       C#7-C#
And although I know It's a long road back I promise you
e|-------|-------|-------|-------|------------|---------------|----|
B|-----4-|-----2-|-------|-------|--------4---|-------4-4h6---|----|
G|-------|-------|-----4-|-----3-|-5----------|-----4---6-----|----|
D|---4---|---4---|-------|---1---|-4----------|---6-----6-----|----|
A|-2-----|-1-----|---6---|-------|-6--6-6---6-|-4-------------|-4--|
D|-------|-------|-6-----|-1-----|-6----------|---------------|----|


Chorus:
F#      D#m     G#m     C#sus4-C# Bbm D#           G#m
I'll be home for Christmas        You can count on me

Aly:
e|--------|-------|---------|---------|-------|-------|-----------------|
B|--------|-----2-|-------4-|-7---6---|-----2-|-----2-|-----------4-----|
G|------3-|-------|-----4---|-6---6---|-------|---0---|-------4-----4---|
D|--------|-------|---------|---6-----|---3---|-------|-----4---4-----0-|
A|---4----|---1---|---6-----|-------4-|-1-----|-------|---6-------------|
D|-4------|-1-----|-6-------|---------|-------|-1-----|-6---------------|

Bm          C#7      F#    D#m     G#m      G#        C#7 C#
Please have snow and mistletoe And presents under the tree

Aly:
e|-------|-------|---------|---------|---------|---|-----------------|
B|-----3-|-----6-|-----2---|-------2-|---------|---|------4--6-4-----|
G|-------|-----4-|---------|---------|-------4-|-5-|---------6-6-6-6-|
D|---4---|---6-6-|---------|---1-4---|-6-------|-6-|----6--------6-4-|
A|-2-----|-4-----|---4-----|---------|---6-----|-6-|-4---------------|
D|-------|-------|-4-----3-|-1-------|-----6---|-6-|-----------------|

F#        D#m      G#m    C#sus4-C# Bbm       D#         G#m
Christmas Eve will find me          Where the love-light gleams

Aly:
e|--------|-------|---------|---------|-------|-------|-----------------|
B|--------|-----2-|-------4-|-7---6---|-----2-|-----2-|-----------4-----|
G|------3-|-------|-----4---|-6---6---|-------|---0---|-------4-----4---|
D|--------|-------|---------|---6-----|---3---|-------|-----4---4-----0-|
A|---4----|---1---|---6-----|-------4-|-1-----|-------|---6-------------|
D|-4------|-1-----|-6-------|---------|-------|-1-----|-6---------------|

B       Bm       Bbm   D#7    G#m  C#sus4 C# F#
I'll be home for Christmas If only in     my dreams

Aly:
e|-------|-------|-------|---------|---------|---------|--------------|
B|-------|-----3-|-----2-|---------|-------4-|-7---6---|--------------|
G|-----4-|-------|-------|---0-3---|-----4---|-6---6---|-------3-4--6-|
D|---1---|---1---|---3---|---------|---------|---6-----|-----4-4-4--4-|
A|-2-----|-2-----|-1-----|-------4-|---6-----|-------4-|---4----------|
D|-------|-------|-------|-1-------|-6-------|---------|-4------------|


Bridge: The best part to hear the 2 siblings plucking!!! It's showtime!!!


B-F#/Bb-G#m-D#m     G#m         C#      F#
               Even more than I usually do

Aly:
e|-------|----------|---------|---------|------------|---------|------------------|
B|-------|------2---|---------|---------|------------|---------|------------------|
G|-----4-|--------4-|-----4-3-|-----3---|-----4----6-|-6---6---|-----4-3----3p1---|
D|---1---|----------|-------4-|---1---1-|--------8---|-------4-|-----4-4-4------4-|
A|-2-----|-1--4-----|---6-----|---------|---6--------|---4-----|---4--------------|
D|-------|----------|-6-------|-1-------|-6----------|---------|-4----------------|

Aj:
e|-6--6--4---|-4--4------|-------|----------------|------|
B|---------6-|-------7-4-|---6-7-|---7-6----------|----7-|
G|-----------|-----------|-8-----|-8------8--6----|------|
D|-----------|-----------|-------|--------------9-|-8----|
A|-----------|-----------|-------|----------------|------|
D|-----------|-----------|-------|----------------|------|


B-F#/Bb-G#m-D#m  G#7           C#7-C#
                 Ooh I promise you

Aly:
e|-------|----------|---------|---------|-------------|-----2-----------|
B|-------|------2---|---------|---------|----------4--|-4-2---4-6-4-----|
G|-----4-|--------4-|-----4-3-|-----3---|---3-5-------|-------------6-4-|
D|---1---|----------|-------4-|---1---1-|-------4-----|-----------------|
A|-2-----|-1--4-----|---6-----|---------|-------------|-4-------4-------|
D|-------|----------|-6-------|-1-------|-6-----------|-----------------|

Aj:
e|-6--6--4---|-4--4------|---------|----------|-----------------|
B|---------6-|-------7-4-|----6--7-|-7--6-----|-----------------|
G|-----------|-----------|-8-------|-------8--|-10--8-----------|
D|-----------|-----------|---------|----------|--------11--9--8-|
A|-----------|-----------|---------|----------|-----------------|
D|-----------|-----------|---------|----------|-----------------|


(Repeat Chorus except last line)


Outro:

B       Bm       Bbm   D#7    G#m      C# F#/Bb-A7-G#m-C#sus4-c#--F#(let ring)
I'll be home for Christmas If only  in my dreams

Aly:
e|-------|-------|-------|---------|-----------|-------|---------|-4-----2-|
B|-------|-----3-|-----2-|-----4---|-------4---|-------|-----2---|-----2---|
G|-----4-|-------|-------|---------|-----4-----|-----6-|-3-3---3-|---0-----|
D|---1---|---1---|---3---|-------1-|-----------|---6---|-4-------|---------|
A|-2-----|-2-----|-1-----|---4-----|---6-------|-4-----|-1-------|-0-------|
D|-------|-------|-------|-1-------|-6---------|-------|---------|---------|
                                         x2
then
e|---------|---|----|-2-|
B|-------4-|-7-|-6--|-2-|
G|-6---4---|---|----|-3-|
D|---4-----|---|----|-4-|
A|---------|-4-|-4--|-4-|
D|-6-------|---|----|-4-|
Tap to rate this tab
# A B C D E F G H I J K L M N O P Q R S T U V W X Y Z