Song name
# A B C D E F G H I J K L M N O P Q R S T U V W X Y Z

Holiday - The Christmas Song tab

-------------------------------------------------------------------------------
			     The Christmas Song - Weezer
-------------------------------------------------------------------------------

Tabbed by: cjpm105

Tuning: Guitar 1 - Standard
        Guitar 2 - Standard

Key
/  slide up
\  slide down
h  hammer-on
p  pull-off
~  sustain

Intro
e|------------------------------------------------------------------------|
B|------------------------------------------------------------------------|
G|------------------------------------------------------------------------|
D|-7--7--7--7--7--7--5--5--5--5--5--5--3--3--3--3--3--3--5--5--5--5--5--5-|
A|-5--5--5--5--5--5--3--3--3--3--3--3--1--1--1--1--1--1--5--5--5--5--5--5-|
E|-5--5--5--5--5--5--3--3--3--3--3--3--1--1--1--1--1--1--3--3--3--3--3--3-|
***************************************************************************
e|------------------------------------------------------------------------|
B|-6------6--8--(5)--6------6--8--(5)--6------6--8--6--8p6--------6--8--6-|
G|---------------------------------------------------------7--------------|
D|------------------------------------------------------------------------|
A|------------------------------------------------------------------------|
E|------------------------------------------------------------------------|

e|------------------------------------|
B|------------------------------------|
G|------------------------------------|
D|-5--5--5--5--5--5--5--5--5--5--5--5-|
A|-3--3--3--3--3--3--3--3--3--3--3--3-|
E|-3--3--3--3--3--3--3--3--3--3--3--3-|
***************************************
e|------------------------------------|
B|-8b10-------------------------------|
G|--------------------7p5-------------|
D|-------------------------7p5--------|
A|------------------------------7--8~-|
E|------------------------------------|

Verse
e|------------------------------------------------------------------------|
B|------------------------------------------------------------------------|
G|------------------------------------------------------------------------|
D|-3--3--3--7--7--7--5--5--5--5--5--5--3--3--3--7--7--7--5--5--5--5--5--5-|
A|-3--3--3--5--5--5--5--5--5--3--3--3--3--3--3--5--5--5--5--5--5--3--3--3-|
E|-1--1--1--5--5--5--3--3--3--3--3--3--1--1--1--5--5--5--3--3--3--3--3--3-|

e|------------------------------------------------------------------------|
B|------------------------------------------------------------------------|
G|------------------------------------------------------------------------|
D|-7--7--7--5--5--5--3--3--3--5--5--5--3--3--3--3--3--3--3--3--3--3--3--3-|
A|-5--5--5--3--3--3--1--1--1--3--3--3--3--3--3--1--1--1--3--3--3--3--3--3-|
E|-5--5--5--3--3--3--1--1--1--3--3--3--1--1--1--1--1--1--1--1--1--1--1--1-|

e|------------------------------------------------------------------------|
B|------------------------------------------------------------------------|
G|------------------------------------------------------------------------|
D|-3--3--3--7--7--7--5--5--5--5--5--5--3--3--3--7--7--7--5--5--5--5--5--5-|
A|-3--3--3--5--5--5--5--5--5--3--3--3--3--3--3--5--5--5--5--5--5--3--3--3-|
E|-1--1--1--5--5--5--3--3--3--3--3--3--1--1--1--5--5--5--3--3--3--3--3--3-|

e|------------------------------------------------------------------------|
B|------------------------------------------------------------------------|
G|------------------------------------------------------------------------|
D|-7--7--7--5--5--5--3--3--3--5--5--5--3--3--3--3--3--3--3--3--3--3--3--3-|
A|-5--5--5--3--3--3--1--1--1--3--3--3--3--3--3--1--1--1--3--3--3--3--3--3-|
E|-5--5--5--3--3--3--1--1--1--3--3--3--1--1--1--1--1--1--1--1--1--1--1--1-|

Chorus
e|------------------------------------------------------------------------|
B|------------------------------------------------------------------------|
G|------------------------------------------------------------------------|
D|-7--7--7--7--7--7--7--7--7--7--7--7--7--7--7--7--7--7--7--7--7--7--7--7-|
A|-5--5--5--5--5--5--5--5--5--5--5--5--7--7--7--7--7--7--7--7--7--7--7--7-|
E|-5--5--5--5--5--5--5--5--5--5--5--5--5--5--5--5--5--5--5--5--5--5--5--5-|

e|------------------------------------------------------------------------|
B|------------------------------------------------------------------------|
G|------------------------------------------------------------------------|
D|-8--8--8--8--8--8--8--8--8--8--8--8--3--3--3--3--3--3--3--3--3--3--3--3-|
A|-8--8--8--8--8--8--8--8--8--8--8--8--3--3--3--3--3--3--3--3--3--3--3--3-|
E|-6--6--6--6--6--6--6--6--6--6--6--6--1--1--1--1--1--1--1--1--1--1--1--1-|

e|------------------------------------------------------------------------|
B|------------------------------------------------------------------------|
G|------------------------------------------------------------------------|
D|-5--5--5--5--5--5--5--5--5--5--5--5--7--7--7--7--7--7--5--5--5--5--5--5-|
A|-3--3--3--3--3--3--5--5--5--5--5--5--5--5--5--5--5--5--3--3--3--3--3--3-|
E|-3--3--3--3--3--3--3--3--3--3--3--3--5--5--5--5--5--5--3--3--3--3--3--3-|

e|------------------------------------------------------------------------|
B|------------------------------------------------------------------------|
G|------------------------------------------------------------------------|
D|-3--3--3--3--3--3--5--5--5--5--5--5--5--5--5--5--5--5--5--5--5--5--5--5-|
A|-1--1--1--1--1--1--5--5--5--5--5--5--5--3--3--3--3--3--3--3--3--3--3--3-|
E|-1--1--1--1--1--1--3--3--3--3--3--3--3--3--3--3--3--3--3--3--3--3--3--3-|

Solo
e|------------------------------------------------------------------------|
B|------------------------------------------------------------------------|
G|------------------------------------------------------------------------|
D|-3--3--3--7--7--7--5--5--5--5--5--5--3--3--3--7--7--7--5--5--5--5--5--5-|
A|-3--3--3--5--5--5--5--5--5--3--3--3--3--3--3--5--5--5--5--5--5--3--3--3-|
E|-1--1--1--5--5--5--3--3--3--3--3--3--1--1--1--5--5--5--3--3--3--3--3--3-|
***************************************************************************
e|-------13-12-10-10----10-13-12~------------13-12-10-10----10-13-12~-----|
B|-10-13-------------11----------------10-13-------------11---------------|
G|------------------------------------------------------------------------|
D|------------------------------------------------------------------------|
A|------------------------------------------------------------------------|
E|------------------------------------------------------------------------|

e|------------------------------------------------------------------------|
B|------------------------------------------------------------------------|
G|------------------------------------------------------------------------|
D|-7--7--7--5--5--5--3--3--3--5--5--5--3--3--3--3--3--3--3--3--3--3--3--3-|
A|-5--5--5--3--3--3--1--1--1--3--3--3--3--3--3--1--1--1--3--3--3--3--3--3-|
E|-5--5--5--3--3--3--1--1--1--3--3--3--1--1--1--1--1--1--1--1--1--1--1--1-|
***************************************************************************
e|-10----10-8-----8--6-----6--5--5-----5~----------------8~---------------|
B|----10-------8--------6-----------8-----------------------------6~------|
G|------------------------------------------------------------------------|
D|------------------------------------------------------------------------|
A|------------------------------------------------------------------------|
E|------------------------------------------------------------------------|

Second chorus
e|------------------------------------------------------------------------|
B|------------------------------------------------------------------------|
G|------------------------------------------------------------------------|
D|-7--7--7--7--7--7--7--7--7--7--7--7--7--7--7--7--7--7--7--7--7--7--7--7-|
A|-5--5--5--5--5--5--5--5--5--5--5--5--7--7--7--7--7--7--7--7--7--7--7--7-|
E|-5--5--5--5--5--5--5--5--5--5--5--5--5--5--5--5--5--5--5--5--5--5--5--5-|

e|------------------------------------------------------------------------|
B|------------------------------------------------------------------------|
G|------------------------------------------------------------------------|
D|-8--8--8--8--8--8--8--8--8--8--8--8--3--3--3--3--3--3--3--3--3--3--3--3-|
A|-8--8--8--8--8--8--8--8--8--8--8--8--3--3--3--3--3--3--3--3--3--3--3--3-|
E|-6--6--6--6--6--6--6--6--6--6--6--6--1--1--1--1--1--1--1--1--1--1--1--1-|

e|------------------------------------------------------------------------|
B|------------------------------------------------------------------------|
G|------------------------------------------------------------------------|
D|-5--5--5--5--5--5--5--5--5--5--5--5--7--7--7--7--7--7--5--5--5--5--5--5-|
A|-3--3--3--3--3--3--5--5--5--5--5--5--5--5--5--5--5--5--3--3--3--3--3--3-|
E|-3--3--3--3--3--3--3--3--3--3--3--3--5--5--5--5--5--5--3--3--3--3--3--3-|

e|------------------------------------------------------------------------|
B|------------------------------------------------------------------------|
G|------------------------------------------------------------------------|
D|-3--3--3--3--3--3--5--5--5--5--5--5--5--5--5--5--5--5--5--5--5--5--5--5-|
A|-1--1--1--1--1--1--5--5--5--5--5--5--5--3--3--3--3--3--3--3--3--3--3--3-|
E|-1--1--1--1--1--1--3--3--3--3--3--3--3--3--3--3--3--3--3--3--3--3--3--3-|

Second Verse
e|------------------------------------------------------------------------|
B|------------------------------------------------------------------------|
G|------------------------------------------------------------------------|
D|-3--3--3--7--7--7--5--5--5--5--5--5--3--3--3--7--7--7--5--5--5--5--5--5-|
A|-3--3--3--5--5--5--5--5--5--3--3--3--3--3--3--5--5--5--5--5--5--3--3--3-|
E|-1--1--1--5--5--5--3--3--3--3--3--3--1--1--1--5--5--5--3--3--3--3--3--3-|
***************************************************************************
e|-------13-12-10-10----10-13-12~------------13-12-10-10----10-13-12~-----|
B|-10-13-------------11----------------10-13-------------11---------------|
G|------------------------------------------------------------------------|
D|------------------------------------------------------------------------|
A|------------------------------------------------------------------------|
E|------------------------------------------------------------------------|

e|------------------------------------------------------------------------|
B|------------------------------------------------------------------------|
G|------------------------------------------------------------------------|
D|-7--7--7--5--5--5--3--3--3--5--5--5--3--3--3--3--3--3--3--3--3--3--3--3-|
A|-5--5--5--3--3--3--1--1--1--3--3--3--3--3--3--1--1--1--3--3--3--3--3--3-|
E|-5--5--5--3--3--3--1--1--1--3--3--3--1--1--1--1--1--1--1--1--1--1--1--1-|
***************************************************************************
e|-10----10-8-----8--6-----6--5--5-----5~-------------5----8--------------|
B|----10-------8--------6-----------8---------------------------6~--------|
G|------------------------------------------------------------------------|
D|------------------------------------------------------------------------|
A|------------------------------------------------------------------------|
E|------------------------------------------------------------------------|

e|----------------------------------------------------|
B|----------------------------------------------------|
G|----------------------------------------------------|
D|--7--7--7--5--5--5--3--3--3--5----5----5--------3~--|
A|--5--5--5--3--3--3--1--1--1--3----3----3--------3~--|
E|--5--5--5--3--3--3--1--1--1--3----3----3--------1~--|
*******************************************************
e|-10----10--8-----8--6-----6--5----5-------------5~--|
B|----10--------8--------6---------------8------------|
G|----------------------------------------------------|
D|----------------------------------------------------|
A|----------------------------------------------------|
E|----------------------------------------------------|

Tap to rate this tab
 
# A B C D E F G H I J K L M N O P Q R S T U V W X Y Z