Song name
# A B C D E F G H I J K L M N O P Q R S T U V W X Y Z

Hollerado - Desire 126 tab

-------------------------------------------------------------------------------
                             DESIRE 126 - Hollerado
-------------------------------------------------------------------------------
Tabbed by: Matthew Ridderikhoff
E-mail: hiddenrevs@gmail.com

Tuning: Standard



  INTRO

e|---------------------------------------------------------------------------|
B|---------------------------------------------------------------------------|
G|---7--7--7--7--7--7--7--7--7--7--7--7--7--7---4---7------------------------|
D|---7--7--7--7--7--7--7--7--7--7--7--7--7--7---4---7------------------------|
A|---5--5--5--5--5--5--5--5--5--5--5--5--5--5---2---5------------------------|
E|---------------------------------------------------------------------------|



  VERSE

  Guitar 1
  x3 (palm-muted)
e|---------------------------------------------------------------------------|
B|---------------------------------------------------------------------------|
G|---7---7-------------------------------------------------------------------|
D|---7---7---9---7---7---9---5---5---9---7---7---9---------------------------|
A|---5---5---9---7---7---9---5---5---9---7---7---9---------------------------|
E|-----------7---5---5---7---3---3---7---5---5---7---------------------------|

  x1 (palm-muted)
e|---------------------------------------------------------------------------|
B|---------------------------------------------------------------------------|
G|---7---7-------------------------------------------------------------------|
D|---7---7---9---7---7---9---5---5---9---7---7---7---------------------------|
A|---5---5---9---7---7---9---5---5---9---7---7---7---------------------------|
E|-----------7---5---5---7---3---3---7---5---5---5---------------------------|

 
 
 Guitar 2
  x2
e|---------------------------------------------------------------------------|
B|---------------------------------------------------------------------------|
G|---------------------------------------------------------------------------|
D|---7---9---7------7---9---7---0--------------------------------------------|
A|---------------------------------------------------------------------------|
E|---------------------------------------------------------------------------|



  PRE-CHORUS

e|---------------------------------------------------------------------------|
B|-------7--------------7----------------------------------------------------|
G|---6---7---4------4---7---6------------------------------------------------|
D|---7---7---5------5---7---7------------------------------------------------|
A|---7---5---5------5---5---7------------------------------------------------|
E|---5-------3------3-------5------------------------------------------------|



  CHORUS
 
  Guitar 1
  x2
e|---------------------------------------------------------------------------|
B|---------------------------------------------------------------------------|
G|---7--7-7------------------------------------------------------------------|
D|---7--7-7---9---7--7-7---9---5--5-5---5-5---5-5--7-------------------------|
A|---5--5-5---9---7--7-7---9---5--5-5---5-5---5-5--7-------------------------|
E|------------7---5--5-5---7---3--3-3---3-3---3-3--5-------------------------|
 
  Guitar 2
  x2
e|---------------------------------------------------------------------------|
B|---------------------------------------------------------------------------|
G|---------------------------------------------------------------------------|
D|---7---9---7------7---9---7---0--------------------------------------------|
A|---------------------------------------------------------------------------|
E|---------------------------------------------------------------------------|

 
  SOLO

  Guitar 1
  x4
e|--------------|
B|--------------|
G|---7-7-7-7----|
D|---7-7-7-7----|
A|---5-5-5-5----|
E|--------------|


  Guitar 2
e|------------------------14---10--9--7--9--7--5-----------------------------|
B|----------10----10h12------------------------------------------------------|
G|---9h11--------------------------------------------------------------------|
D|---------------------------------------------------------------------------|
A|---------------------------------------------------------------------------|
E|---------------------------------------------------------------------------|



  BRIDGE

e|---------------------------------------------------------------------------|
B|---------------------------------------------------------------------------|
G|---9---7-7----------9---7-7----------9---7-7-------------------------------|
D|---9---7-7---7------9---7-7---4------9---7-7---7---------------------------|
A|---7---5-5---7------7---5-5---4------7---5-5---7---------------------------|
E|-------------5----------------2----------------5---------------------------|



  SOLO 2

e|---7-5-7-5-7----------7-5-7-5-7-5----------7-5-7-5-7-----------------------|
B|---------------7-7----------------7------------------7-7----5-7-5---5-7----|
G|------------------------------------7-7---------------------------7-----7--|
D|---------------------------------------------------------------------------|
A|---------------------------------------------------------------------------|
E|---------------------------------------------------------------------------|

e|---7-5-7-5-7----------7-5-7-5-7-5----------7-5-7-5-7-----------------------|
B|---------------7-7----------------7------------------7-7---5p7h5p7h5p7h5p7-|
G|------------------------------------7-7------------------------------------|
D|---------------------------------------------------------------------------|
A|---------------------------------------------------------------------------|
E|---------------------------------------------------------------------------|




INTRO
VERSE
PRE-CHORUS
CHORUS
SOLO 1
VERSE
PRE-CHORUS
CHORUS 
SOLO 2
CHORUS 
CHORUS & SOlO 2
SOLO


************************************

| /   slide up
| \   slide down
| h   hammer-on
| p   pull-off
| ~   vibrato
| +   harmonic
| x   Mute note
| b   Bend
| pb  Pre-bend
| br  Bend release
| pbr Pre-bend release
| brb Bend release bend

************************************
Tap to rate this tab
 
# A B C D E F G H I J K L M N O P Q R S T U V W X Y Z