Song name
# A B C D E F G H I J K L M N O P Q R S T U V W X Y Z

Hollerado - Good Day At The Races tab

-----------------------------------------------------------------------
                             Good Day at the Races - Hollerado
-----------------------------------------------------------------------
Tabbed by: mikesauce
Email:tomlinson_10@yahoo.com

Tuning:Standard 

Intro (x2)

e|-----------------8--10------8----------------------------------------------|
B|-------------10---------10-----------------8--10-10-8----------------------|
G|---------10----------------------------10--------------10------------------|
D|-----10----------------------------10--------------------------------------|
A|---------------------------------------------------------------------------|
E|---------------------------------------------------------------------------|

Transition Riff
     
e|---1--1--1-------1---1---1---1---1--------1--------------------------------|
B|---1--1--1-------1---1---1---1---1--------1--------------------------------|
G|---2--2--2-------2---2---2---2---2--------2--------------------------------|
D|---3--3--3--/5---3---3---3---3---3---/5---3--------------------------------|
A|---3--3--3--/5---3---3---3---3---3---/5---3--------------------------------|
E|---1--1--1-------1---1---1---1---1--------1--------------------------------|

Verse (guitar 1)
     
e|---------------------------------------------------------------------------|
B|---1------------------1-----------------1----------------------------------|
G|------2--0--2--0--2------2--0--2--0--------2--0--2--0--2-----2--0--2--0----|
D|-------------------------------------3--------------------3--------------3-|
A|---------------------------------------------------------------------------|
E|---------------------------------------------------------------------------|

Verse 1 (lyrics and guitar 2)

F
In my bedroom there are books on architecture 
Bb                         C   
Bury myself in them listening to records
F
In the springtime we will all be graduating
Bb                         C  
Parents wonder why I haven't started dating
F
Ooh oh oh oh oh oh oh oh oh
Dm
Way down low but I got somebody to love

(Transition Riff)

Verse 2

F
Mother took me to the daughter of her pastor
Bb                                   C
Hoping girls and god would make my heart beat faster
F
Sundays we'd drive fast and talk about the weather
Bb                                   C
Till you took my hand said I ain't what you're after
F
Ooh oh oh oh oh oh oh oh oh
Dm
Way down low but I got somebody to love 
F
Ooh oh oh oh oh oh oh oh oh
Dm
Way down low but I got somebody to love

(Intro Riff x2)

Solo
     
e|---------------------------------------------------------------------------|
B|------10----10-11----10----10-11----10----10-11-11b13r11-10----------------|
G|---10-10-10-10----10-10-10-10----10-10-10-10-------------------------------|
D|---------------------------------------------------------------------------|
A|---------------------------------------------------------------------------|
E|---------------------------------------------------------------------------|


e|--------------10-10--------------------------------------------------------|
B|--------10-13-------10-13-10-------------10-10-----------------------------|
G|-----10----------------------------10-12-------12-10-----------------------|
D|--10----------------------------10-----------------------------------------|
A|------------------------------------------------------------3br------------|
E|-----------------------------------------------------------------3br-------|

Verse 3
              F         
And mother cried father took a long walk
Hasn't let his eyes meet mine he barely talks
             F  
Said I am scared, scared of introductions, scared of repercussions 
And discussions in the dark
             Bb                            F
But you are strong I turn you on and take it easy

Dm       C                         Bb   
Ooh ooh When all you've got is gone 
Dm       C                    Bb
Ooh ooh Thank you for your song
                                          F     
Let the good day at the races make it right


Solo 2
       tremolo picking
e|---------------------------------------------------------------------------|
B|------------10---13-10-13--15--13--10-----------10---10---10---10----13-10-|
G|--10---12-------------------------------12--------10---10---10---10--------|
D|---------------------------------------------------------------------------|
A|---------------------------------------------------------------------------|
E|---------------------------------------------------------------------------|
                                                                 
e|---------------------------------------------------------------------------|
B|---10---10---10---10----13--10---11---11---11---11----13--10---13----------|
G|-----10---10---10---10-------------10---10---10---10-----------------------|
D|---------------------------------------------------------------------------|
A|---------------------------------------------------------------------------|
E|---------------------------------------------------------------------------|

e|---------------------------------------------------------------------------|
B|--------13b15r13-10----13b15r13-10--------------10---------10--------------|
G|------------------------------------12--10--12-------------10--------------|
D|---------------------------------------------------10--12------------------|
A|---------------------------------------------------------------------------|
E|---------------------------------------------------------------------------|

(Transition Riff)

Outro (guitar 1, listen for the rhythm)

e|---------------------------------------------------------------------------|
B|--------6---6---6----------6---6---------6----6----6-----------------------|
G|--------7---7---7----------7---7---------5----5----5-----------------------|
D|------7---7---7----------8---8---------7----7----7-------------------------|
A|---------------------------------------------------------------------------|
E|---------------------------------------------------------------------------|



Dm                      Bb   C  F
Way down low but I got somebody to love
F
Ooh oh oh oh oh oh oh oh oh
Dm                      Bb   C  F       
Way down low but I got somebody to love
F
Ooh oh oh oh oh oh oh oh oh
Dm                      Bb   C  F       
Way down low but I got somebody to love



************************************

| /   slide up
| \   slide down
| h   hammer-on
| p   pull-off
| ~   vibrato
| +   harmonic
| x   Mute note
| b   Bend
| pb  Pre-bend
| br  Bend release
| pbr Pre-bend release
| brb Bend release bend

************************************
Tap to rate this tab
# A B C D E F G H I J K L M N O P Q R S T U V W X Y Z