Song name
# A B C D E F G H I J K L M N O P Q R S T U V W X Y Z

Hollie Rogers - Holding On tab

Tabbed by: Zazmina

Listen to the song for the rythm! Happy guitaring!

Tuning:
e|----0----0--------0---0---0----0---0--------0---0--------0---0---0---0---0-|
B|---2----2---2----2---2---2----2---2---2----2---2---2----2---2---2---2---2--|
G|---------------------------------------------------------------------------|
D|-------------------------------------------------------------------1---1---|
A|--4---4---4----2---2---2-----------------0---0---0----4---4---4------------|
E|---------------------------4---4---4---------------------------------------|

e|---0----0---0-------7-2--5-2--4-2------0---0------and just----------------|
B|--2----2---2---2-------0----0----0----2---2---2---repeat that-------------|
G|--------------------------------------------------throught the------------|
D|-1----2---2---2-----------------------------------rest of the ------------|
A|-------------------------------------4---4---4----song!!------------------|
E|--------------------------------------------------------------------------|


Link to Hollie Rogers site: http://www.hollierogers.com/
===============================================================================
Tap to rate this tab
# A B C D E F G H I J K L M N O P Q R S T U V W X Y Z