Song name
# A B C D E F G H I J K L M N O P Q R S T U V W X Y Z

Hollie Smith - Finding Home tab

 -----------------------------------------------------------------
Song  : Finding Home
Artist: Hollie Smith
Album : Humour and The Misfortune Of Others (May 2010).
Web   : http://www.holliesmith.co.nz/
----------------------------------------------------------------- 

Piano arranged for Acoustic Guitar.
Tuning: Drop-D  Tuned down 2 Whole Steps).
        Bb - F - Bb - D# - G - c

Tablature Notation: 
Chords: (Chords are named as if still in Standard Drop-D Tuning).
                    (and the notes in Brackets are not always played)

  Am7+4          F Maj7            E9             Dm+11          F#m7b5                  
e|-(0)-|        e|-(0)-|        e|--2--|        e|-(2)-|        e|-(0)-|        
B|--3--|        B|--1--|        B|--3--|        B|--3--|        B|--1--|        
G|--5--|        G|--2--|        G|--1--|        G|--2--|        G|--2--|        
D|--7--|        D|--3--|        D|--2--|        D|--3--|        D|--4--|        
A|--0--|        A|-----|        A|-----|        A|-----|        A|-----|        
D|-----|        D|-(3)-|        D|-(2)-|        D|-(0)-|        D|-(4)-|        

  G#dim           Am(2)             G               F           
e|-----|        e|--8--|        e|--7--|        e|--5--|
B|--3--|        B|--5--|        B|--8--|        B|--6--|
G|--4--|        G|--5--|        G|--7--|        G|--5--|
D|--6--|        D|--7--|        D|--5--|        D|--3--|
A|-----|        A|-----|        A|-----|        A|-----|
D|-(6)-|        D|-----|        D|-----|        D|-----|



Intro: 
    1 e & a 2 e & a 3 e & a 4 e & a  |  1 e & a 2 e & a 3 e & a 4 e & a     
e|----------------------------0------|--0--------------------------------| 
B|--3-----------------------3---3----|--1-------1------------------------| 
G|--5---------------------5-------5--|--2-------2------------------------| 
D|--7-------------------7------------|--3---3----------------------------| 
A|--0--------------------------------|-----------------------------------| 
D|-----------------------------------|-----------------------------------| 


    1 e & a 2 e & a 3 e & a 4 e & a  |  1 e & a 2 e & a 3 e & a 4 e & a    
e|------------------0----------------|-----------------------------------| 
B|--3-----------------------3--------|--3-----------------------3--------| 
G|--1-----------------------1--------|--2-------------------2-------2----| 
D|--2---------------------------2----|--3---------------3----------------| 
A|-----------------------------------|-----------------------------------| 
D|-----------------------------------|-----------------------------------| 


    1 e & a 2 e & a 3 e & a 4 e & a  |  1 e & a 2 e & a 3 e & a 4 e & a    
e|----------0------------------------|-----------------------------------| 
B|--1-------1-------1-------1--------|--3-------3-------3-------3--------| 
G|--2-------2-------2-------2--------|--4-------4-------4-------4--------| 
D|--4---------------4-------4--------|--6-------6-------6-------6--------| 
A|-----------------------------------|-----------------------------------| 
D|------------------------------4----|-/6--------------------------------| 


    1 e & a 2 e & a 3 e & a 4 e & a  |  1 e & a 2 e & a 3 e & a 4 e & a   
e|-----------------------------------|-----------------------------------| 
B|--1-----------------------1--------|--3--------------------------------| 
G|--2---------------2----------------|--1-----------------------1--------| 
D|--3--------------------------------|--2--------------------------------| 
A|-----------------------------------|-----------------------------------| 
D|-----------------------------------|-----------------------------------| 



Verse 1: 
   "I    created my own truth...          and with that all I knew...
    1 e & a 2 e & a 3 e & a 4 e & a  |  1 e & a 2 e & a 3 e & a 4 e & a    
e|-----------------------------------|--0---------------0----------------| 
B|--3--------------------------------|--1-------1-------1-------1--------| 
G|--5--------------------------------|--2-------2-------2-------2--------| 
D|--7--------------------------------|--3-------3-------3-------3--------| 
A|--0--------------------------------|-----------------------------------| 
D|-----------------------------------|------------------------------(3)--| 


              and I gave it all to      you...                      and...
    1 e & a 2 e & a 3 e & a 4 e & a  |  1 e & a 2 e & a 3 e & a 4 e & a    
e|-(2)-------------------------------|-----------------------------------| 
B|--3-------3-------3-------3--------|--3-------3-------3-------3--------| 
G|--1-------1-------1-------1--------|--2-------2-------2-------2--------| 
D|--2-------2-------2-------2--------|--3-------3-------3-------3--------| 
A|-----------------------------------|-----------------------------------| 
D|-(2)-------------------------------|-----------------------------(3)---| 


  though I gave you everything...         and did all you wanted...
    1 e & a 2 e & a 3 e & a 4 e & a  |  1 e & a 2 e & a 3 e & a 4 e & a   
e|-(0)-------------(3)-----(0)-------|---------(2)-----------------------| 
B|--1-------1-------1-------1--------|--3-------3-------3-------3--------| 
G|--2-------2-------2-------2--------|--4-------4-------4-------4--------| 
D|--4-------4-------4-------4--------|--6-------6-------6-------6--------| 
A|-----------------------------------|-----------------------------------| 
D|-(4)--------------------------4----|-/6--------------------------------| 


           now it's gone    and i'm     done...            mmm hmm e ah 
    1 e & a 2 e & a 3 e & a 4 e & a  |  1 e & a 2 e & a 3 e & a 4 e & a   
e|-(0)-------------------------------|-(2)-------------------------------| 
B|--1-------1-------1-------1--------|--3-------3-------3-------3--------| 
G|--2-------2-------2-------2--------|--1-------1-------1-------1--------| 
D|--3-------3-------3-------3--------|--2-------2-------2-------2--------| 
A|-----------------------------------|-----------------------------------| 
D|------------------------------(3)--|-(2)-------------------------------| 


    m   hmmmmmm....."
    1 e & a 2 e & a 3 e & a 4 e & a  |  1 e & a 2 e & a 3 e & a 4 e & a   
e|----------------------------0------|--------------------------0--------| 
B|--3-------3-------3-------3---3----|--1---------------1-------1--------| 
G|--5-------5-------5-----5-------5--|--2-------2---------------2--------| 
D|--7-------7-------7---7------------|------3----------------------------| 
A|--0--------------------------------|-----------------------------------| 
D|-----------------------------------|-----------------------------------| 


    1 e & a 2 e & a 3 e & a 4 e & a  | 
e|-(2)-------------------------------| 
B|--3-------3-------3-------3--------| 
G|--1-------1-------1-------1--------| 
D|--2-------2-------2-------2--------| 
A|-----------------------------------| 
D|------------------------------(2)--| 



Verse 2: 
   "My protection of promises...          and endless escape clauses...
    1 e & a 2 e & a 3 e & a 4 e & a  |  1 e & a 2 e & a 3 e & a 4 e & a   
e|-----------------------------------|-(0)-------------------------------| 
B|--3-------3-------3-------3--------|--1-------1-------1-------1--------| 
G|--5-------5-------5-------5--------|--2-------2-------2-------2--------| 
D|--7-------7-------7-------7--------|--3-------3-------3-------3--------| 
A|--0--------------------------------|-----------------------------------| 
D|-----------------------------------|------------------------------3----| 


     need a light...      I burn it for you...                     when... 
    1 e & a 2 e & a 3 e & a 4 e & a  |  1 e & a 2 e & a 3 e & a 4 e & a   
e|----------2------(2)---------------|-----------------------------------| 
B|--3-------3-------3-------3--------|--3-------3-------3-------3--------| 
G|--1-------1-------1-------1--------|--2-------2-------2-------2--------| 
D|--2-------2-------2-------2--------|--3-------3-------3-------3--------| 
A|-----------------------------------|-----------------------------------| 
D|--2--------------------------------|--0--------------------------------| 


you took the only  thing  from me...       that shaped  my    identity...
    1 e & a 2 e & a 3 e & a 4 e & a  |  1 e & a 2 e & a 3 e & a 4 e & a   
e|------------------0----------------|-----------------(2)---------------| 
B|--1-------1-------1-------1--------|--3-------3-------3-------3--------| 
G|--2-------2-------2-------2--------|--4-------4-------4-------4--------| 
D|--4-------4-------4-------4--------|--6-------6-------6-------6--------| 
A|-----------------------------------|-----------------------------------| 
D|--4---------------------------4----|-/6--------------------------------| 


       and now it's gone    and i'm            done...         ohh  just...
    1 e & a 2 e & a 3 e & a 4 e & a  |  1 e & a 2 e & a 3 e & a 4 e & a   
e|------------------0----------------|------------------2------(2)-------| 
B|--1-------1-------1-------1--------|--3-------3-------3-------3--------| 
G|--2-------2-------2-------2--------|--1-------1-------1-------1--------| 
D|--3-------3-------3-------3--------|--2-------2-------2-------2--------| 
A|-----------------------------------|-----------------------------------| 
D|--3--------------------------(3)---|-(2)-------------------------------| 


    take  what you want and let  me    find my way  back  home..."
                            [<-----Triplet Timing----->]
    1 e & a 2 e & a 3 e & a 4  &  a  |  1  &  a 2  &  a 3   &   4   &     
e|-------------------------(0)-------|---------(2)-----(2)---------------| 
B|--3-------3-------3-------1--------|--1-------3-------3-------3--------| 
G|--2-------2-------2-------2--------|--2-------1-------1---1---5--------| 
D|--3-------3-------3-------3--3--3--|--3--3--3-2--2--2-2-------7--------| 
A|-----------------------------------|--------------------------0--------| 
D|--0----------------------(3)-------|-(3)-----(2)-----------------------| 
                            [<-----Triplet Timing----->]


Interlude: 
                                |------>*
    1 e & a 2 e & a 3 e & a 4 e & a  |  1 e & a 2 e & a 3 e & a 4 e & a   
e|-----------------------------------|-----------------------------------| 
B|--3-------3-------3-----------1----|-(1)----------------------1--------| 
G|--5-------5-------5-----------2----|-(2)--------------2----------------| 
D|--7-------7-------7-----------3----|-(3)------3------------------------| 
A|-(0)-------------------------------|-----------------------------------| 
D|-----------------------------(3)---|-(3)-------------------------(3)---| 
                                |------>*
*Note* For simplicity, just bring this beat forward to here. (silly song!)


    1 e & a 2 e & a 3 e & a 4 e & a  |  1 e & a 2 e & a 3 e & a 4 e & a   
e|---------(2)-----(0)---------------|-----------------------------------| 
B|--3-------3-------3-------1--------|-----------------------------------| 
G|--1-------1-------1---1-------1----|--2---------------2-------2--------| 
D|-----------------------------------|--3-----------3-------3-------3----| 
A|-----------------------------------|------5----------------------------| 
D|-(2)-------------------------------|-(0)-------------------------------| 


    1 e & a 2 e & a 3 e & a 4 e & a  |  1 e & a 2 e & a 3 e & a 4 e & a   
e|-----------------------------------|-------------------------(2)-------| 
B|--1-------1-------1-------1--------|--3-------3-------3-------3--------| 
G|--2-------2-------2-------2--------|--4-------4-------4-------4--------| 
D|--4-------4-------4-------4--------|--6-------6-------6-----------6----| 
A|-----------------------------------|-----------------------------------| 
D|-(4--------------------------(4)---|-(6)-------------------------------| 


    1 e & a 2 e & a 3 e & a 4 e & a  |  1 e & a 2 e & a 3 e & a 4 e & a   
e|-----------------------------------|--2-------2---------------2--------| 
B|--1-------1-------1----------------|--3-------3-------3-------3--------| 
G|--2-------2-------2-------2--------|--1-------1-------1-----------1----| 
D|--3-------3-------3---3-------3----|-----------------------------------| 
A|-----------------------------------|-----------------------------------| 
D|-(3)-------------------------------|-(2)-------------------------------| 



Verse 3: 
  "So now i'm on the back foot...        and somehow I deserved it... 
    1 e & a 2 e & a 3 e & a 4 e & a  |  1 e & a 2 e & a 3 e & a 4 e & a   
e|-----------------------------------|-----------------------------------| 
B|--3-------3-------3-------3--------|--1-------1-------1-------1--------| 
G|--5-------5-------5-------5--------|--2-------2-------2-------2--------| 
D|--7-------7-------7-------7--------|--3-------3-------3-------3--------| 
A|-(0)-------------------------------|-----------------------------------| 
D|-----------------------------------|-(3)-------------------------(3)---| 


 i'm in the gutter man it's nothing...   and somehow   I won  it...   
    1 e & a 2 e & a 3 e & a 4 e & a  |  1 e & a 2 e & a 3 e & a 4 e & a   
e|--2-------2-------2-------2--------|-----------------------------------| 
B|--3-------3-------3-------3--------|--3-------3-------3-------3--------| 
G|--1-------1-------1-------1--------|--2-------2-------2-------2--------| 
D|-----------------------------------|--3-------3-------3-------3--------| 
A|-----------------------------------|-----------------------------------| 
D|-(2)-------------------------(2)---|-(0)-------------------------------| 


  i't not the money, it's no the deal...    it's that you don't see...
    1 e & a 2 e & a 3 e & a 4 e & a  |  1 e & a 2 e & a 3 e & a 4 e & a   
e|-----------------------------------|-----------------------------------| 
B|--1-------1-------1-------1--------|--3-------3-------3-------3--------| 
G|--2-------2-------2-------2--------|--4-------4-------4-------4--------| 
D|--4-------4-------4-------4--------|--6-------6-------6-------6--------| 
A|-----------------------------------|-----------------------------------| 
D|-(4)-------------------------(4)---|-(6)-------------------------------| 


     and you stole my time...   and my faith in me...          so just...
    1 e & a 2 e & a 3 e & a 4 e & a  |  1 e & a 2 e & a 3 e & a 4 e & a   
e|-----------------------------------|--2-------2-------2-------2--------| 
B|--1-------1-------1-------1--------|--3-------3-------3-------3--------| 
G|--2-------2-------2-------2--------|--1-------1-------1-------1--------| 
D|--3-------3-------3-------3--------|-----------------------------------| 
A|-----------------------------------|-----------------------------------| 
D|-(3)-------------------------------|-(2)-------------------------------| 


     take  what you want... |---------->let me  find my way       back... 
                            |---------->*
    1 e & a 2 e & a 3 e & a 4  &  a  |  1  &  a 2  &  a 3  &  a 4  &  a 
e|-----------------------------------|-----------------------------------| 
B|--3--------------------------------|------------------0-------0--------| 
G|--2-------2--------------(2)-------|--2-------2----------1-------1-----| 
D|--3-----------3--(0)--------(3)----|-----3-------3----------2-------2--| 
A|------------------5----------------|-----------------------------------| 
D|-(0)-----(0)---------(0)-(3)---(3)-|--3-----3-------3-2----------------| 
                            |---------->*
*Note* Again, just forward  4th beat to 1st beat. (it's easier to follow)


    h o m e...                                            oh yeah etc..."
    1  &  a 2  &  a 3  &  a 4  &  a  |  1  &  a 2  &  a 3  &  a 4  &  a 
e|-----------------------------------|-----------------------------------| 
B|--1-------1-------0-------0--------|--1-------1-------3-------3--------| 
G|-----2-------2-------1-------1-----|-----2-------2-------1-------1-----|  Repeat
D|-----------------------------------|-----------------------------------|  2Times
A|-----------------------------------|-----------------------------------| 
D|--3-----3-------3-2-----2-------2--|--3-----3-------3-2-----2-------2--| 


******************************
   "On my way home...  etc" 
   (Repeating 8 more times)
******************************


    1  &  a 2  &  a 3  &  a 4  &  a  | 
e|-----------------------------------| 
B|--1-------1-------0-------0--------| 
G|-----2-------2-------1-------1-----| 
D|-----------------------------------| 
A|-----------------------------------| 
D|--3-----3-------3-2-----2-------2--| 


Breakdown: 
  "yeah  ...eah    etc... "
    1  &  a 2  &  a 3  &  a 4... freely played  and  slowing to a halt. 
e|--8-------7-------5----(5)---(5)---|---8---------------12-p-7-p-0-----| 
B|--5-------8-------6----(6)---(6)---|-------(7)------0-----------------| Well my  
G|--5-------7-------5----(5)---------|--------7----7-----------------13-| version
D|--7-------5-------3----(3)---------|----------------------------------| anyways
A|-----------------------------------|----------------------------------|  
D|-----------------------------------|----------------------------------| 



Verse 4:                                 "so now i'm on the  back foot...
    1 e & a 2 e & a 3 e & a 4 e & a  |  1 e & a 2 e & a 3 e & a 4 e & a   
e|-----------------------------------|-----------------------------------| 
B|--3-----------------------3--------|--3-----------------------3--------| 
G|--5-------5-------5-------5--------|--5-------5-------5-------5--------| 
D|--7-------2-------7-------7--------|--7-------7-------7-------7--------| 
A|--0-------0-------0-------0--------|--0--------------------------------| 
D|-----------------------------------|-----------------------------------| 


                and some  how  I deserved it...          i'm in the gutter
    1 e & a 2 e & a 3 e & a 4 e & a  |  1 e & a 2 e & a 3 e & a 4 e & a   
e|-----------------------------------|--2-------2-------2-------2--------| 
B|--1-------1-------1-------1--------|--3-------3-------3-------3--------| 
G|--2-------2-------2-------2--------|--1-------1-------1-------1--------| 
D|--3-------3-------3-------3--------|-----------------------------------| 
A|-----------------------------------|-----------------------------------| 
D|--3--------------------------------|--2--------------------------------| 


 man it's nothing  and somehow I  won it. It's not the money, it's not the
    1 e & a 2 e & a 3 e & a 4 e & a  |  1 e & a 2 e & a 3 e & a 4 e & a   
e|-----------------------------------|-----------------------------------| 
B|--3-------3-------3-------3--------|--1-------1-------1-------1--------| 
G|--2-------2-------2-------2--------|--2-------2-------2-------2--------| 
D|--3-------3-------3-------3--------|--4-------4-------4-------4--------| 
A|-----------------------------------|-----------------------------------| 
D|--0--------------------------------|--4--------------------------------| 


    deal  it's that you don't see...              you stole my time and my
    1 e & a 2 e & a 3 e & a 4 e & a  |  1 e & a 2 e & a 3 e & a 4 e & a   
e|-----------------------------------|-----------------------------------| 
B|--3-------3-------3-------3--------|--1-------1-------1-------1--------| 
G|--4-------4-------4-------4--------|--2-------2-------2-------2--------| 
D|--6-------6-------6-------6--------|--3-------3-------3-------3--------| 
A|-----------------------------------|-----------------------------------| 
D|--6--------------------------------|--3--------------------------------| 


      faith in me...            so just take  what you want...
    1 e & a 2 e & a 3 e & a 4 e & a  |  1 e & a 2 e & a 3 e & a 4 e & a   
e|--2-------2-------2-------2--------|-----------------------------------| 
B|--3-------3-------3-------3--------|--3-------3-------3-------3--------| 
G|--1-------1-------1-------1--------|--2-------2-------2-------2--------| 
D|-----------------------------------|--3-------3-------3-------3--------| 
A|-----------------------------------|-----------------------------------| 
D|--2--------------------------------|--0--------------------------------| 


  help me  find  my way...                       back      home...      "
    1  &  a 2  &  a 3  &  a...  played freely and slowing to a finish.  
e|---------------------------|-------------------------------------------| 
B|--1-------1-------3--------|--3--------3--------3------------------3---|E 
G|--2-------2-------1--------|--4--------4--------4---------------5------|N
D|-----3-------3-------2-----|-----6--------6--------6---------7---------|D
A|---------------------------|------------------------------0------------|E
D|--3-----3-------3-2-----2--|-(2)---------------------------------------| 

Tap to rate this tab
 
# A B C D E F G H I J K L M N O P Q R S T U V W X Y Z