Song name
# A B C D E F G H I J K L M N O P Q R S T U V W X Y Z

Hollies - The Air That I Breath chords

Highlighted       Show chord diagrams
THE AIR THAT I BREATHE  THE HOLLIES
-----------------------------------------------------------------------
Intro
              repeat                repeat
         ring   x6         ring   x6
e|-------------------------11------------10b11------------|
B|--------------------------------------------------------|
G|-11b13-------2h4---9s11--------2h4----------------------|
D|--------9----------7s9----------------------------------|
A|--------------------------------------------------------|
E|--------------------------------------------------------|
     
CHORDS 
         B                       D#
         If I could make a wish, I think I'd pass,

         E              Em          B
         Can't think of anything I need.

         B                           D#
         No cigarettes, no sleep, no light, no sound,

         E          Em               B
         Nothing to eat, no books to read.

Bridge:  D#m                           Em                    B
         Making love with you has left me peaceful, warm and tired.

         D#m                            Em                 B
         What more could I ask? There's nothing left to be desired.

         B                          D#
         Peace came upon me and it leaves me weak,

         E                  Em           B
         So sleep, silent angel, go to sleep.

Chorus: 
         B                          F#                          B
         Sometimes all I need is the air that I breathe and to love you.

                            F#                           B   
         All I need is the air that I breathe, yes, to love you.

                            F#                  F#m  E  B  F#
         All I need is the air that I breathe.

Instrumental:  F#m  E  B  F#
                       v
e|-------------------------------------------------------------------------|
B|-------------------------------------------------------------------------|
G|-----------------------------------------11s13s11------------------------|
D|--11s9-----------11--11---9--9----9s8h9-----------13--9-11h13--11h13--11-|
A|--------12---9-----------------------------------------------------------|
E|-------------------------------------------------------------------------|
              B                     D#
         Peace came upon me and it leaves me weak,

         E                  Em           B
         So sleep, silent angel, go to sleep.  

          B                          F#                          B
          Sometimes all I need is the air that I breathe and to love you.

                            F#                           B   
          All I need is the air that I breathe, yes, to love you.

                            F#                   F#m  E  B  F#
          All I need is the air that I breathe.
Tap to rate this tab
 
# A B C D E F G H I J K L M N O P Q R S T U V W X Y Z