Song name
# A B C D E F G H I J K L M N O P Q R S T U V W X Y Z

Hollies - Long Cool Woman In A Black Dress tab

Long Cool Woman In a Black Dress
The Hollies- Album: Distant Light
Submitted by Jack.


Intro: 2x Let the open notes ring…Might be hard to understand…just try
|------------------------------------------|
|-------------------0----0-----0-----------|
|---------------------0-----0------0-------|
|-------------0h2/5-----4-----2------0-----|
|------0h2---------------------------------|
|--0---------------------------------------|

|------------------------------------------------|
|------------------------------------------------|
|--0----------------0-----0-----0-----0----------|
|------0------0--------0-----0-----0-----0-------|
|----------2-------------------------------------|
|--------------- 3-------2-----3-----5------3-2--|

Those to are played together, i just didn't have room
on the page. Thanks.
Tap to rate this tab
# A B C D E F G H I J K L M N O P Q R S T U V W X Y Z