Song name
# A B C D E F G H I J K L M N O P Q R S T U V W X Y Z

Hollow - Dont tab

intro
flange\delay

e--------------------------------------------------------------------------
b--------------------------------------------------------------------------
g--------------------------------------------------------------------------
d----3----2----1----0-----5--4-----5--4-----0--0--0--0---------------------
a---3-3--2-2--1-1--0-0---5--4--3--5--4--3--0--0--1--1----------------------
D--3----2----1----0-----5--4--3--5--4--3--0--0--0--0-----------------------

chourus

e--------------------------------------------------------------------------
b--------------------------------------------------------------------------
g--7--3--5--2--------------------------------------------------------------
d--5--1--3--0--------------------------------------------------------------
a--5--1--3--0--------------------------------------------------------------
D--5--1--3--0--------------------------------------------------------------
Tap to rate this tab
# A B C D E F G H I J K L M N O P Q R S T U V W X Y Z