Hollow - If You Meant Half As Much To Yourself As You Do To Me Wed Be More Than Happy tab

So hey, this is my band's one and only song so far, um, so check it out, and we'll post 
up a video of us playing it soon.

The Hollow:
If you meant half as much to yourself as you do to me, we'd be more than happy

I'm just gonna dedicate this song for my best friend, Mia, cos I always said I'd write a 
song for her and I never did, until it was too late.

Drop D

Intro/Chorus (2 times)

e|--------------------------------------------------------------|
B|--------------------------------------------------------------|
G|--------------------------------------------------------------|
D|-4-4-4-4-4-4-4-4-0-0-0-0-0-0-0-0-7~--7~--7~--7-6~-2-2---2--2--|
A|-4-4-4-4-4-4-4-4-0-0-0-0-0-0-0-0-7~--7~--7~--7-7~-2-2---2--2--|
D|-4-4-4-4-4-4-4-4-0-0-0-0-0-0-0-0-7~--7~--7~--7-6~-2-2---2--2--|

Verse 1

e|--------4-4-4-4--------5-5-5-5--------7-7-7-7---------------|
B|--------7-7-7-7--------7-7-7-7--------7-7-7-7---------------|
G|------------------------------------------------------------|
D|-4--4-4---------4--4-4---------4--4-4---------4--4-0-2--2-0-|
A|-4--4-4---------4--4-4---------4--4-4---------4--4-0-2--2-0-|
D|-4--4-4---------4--4-4---------4--4-4---------4--4-0-2--2-0-|

e|--------4-4-4-4---------5-5-5-5--------7-7-7-7--------9-9-9-9-|
B|--------7-7-7-7---------7-7-7-7--------7-7-7-7--------7-7-7-7-|
G|--------------------------------------------------------------|
D|-0--0-0----------0--0-0---------0--0-0---------0--0-0---------|
A|-0--0-0----------0--0-0---------0--0-0---------0--0-0---------|
D|-0--0-0----------0--0-0---------0--0-0---------0--0-0---------|

Verse 2

e|--------5-4-5----------5-7-5----------5-4-5-----------------|
B|--------7-7-7----------7-7-7----------7-7-7-----------------|
G|------------------------------------------------------------|
D|-4--444---------4--444-------4--444---------4-444-4-2-222-2-|
A|-4--444---------4--444-------4--444---------4-444-4-2-222-2-|
D|-4--444---------4--444-------4--444---------4-444-4-2-222-2-|

e|--------5-4-5----------5-7-5----------5-7-5---------5-7-0---|
B|--------7-7-7----------7-7-7----------7-7-7---------7-7-7---|
G|------------------------------------------------------------|
D|-0--000---------0--000---------0--000---------0-000---------|
A|-0--000---------0--000---------0--000---------0-000---------|
D|-0--000---------0--000---------0--000---------0-000---------|

Pre-Chorus (two times)

e|----------------------------------------------------------------------|
B|----------------------------------------------------------------------|
G|----------------------------------------------------------------------|
D|----------------------------------------------------------------------|
A|-4-4---4-4---44444444---4-4---44442222---0-0---0-0---00000000-0/7777~-|
D|-4-4---4-4---44444444---4-4---44442222---0-0---0-0---00000000-0/7776~-|

Chorus

post-chorus

e|----------------------------------------------------------------------|
B|----------------------------------------------------------------------|
G|----------------------------------------------------------------------|
D|-------7-------7-------7-6-7-9-7-------11-9-7-9-6-------12-11-9-11-7~-|
A|-4-4-4---4-4-4---4-4-4-----------0-0-0------------0-0-0---------------|
D|-4-4-4---4-4-4---4-4-4-----------0-0-0------------0-0-0---------------|

Verse 1

Verse 2

Interlude

e|-----------------------------------|
B|-----------------------------------|
G|---------------------------7-------|
D|-----7-----7---7-----7-----------7-|
A|-4-4---4-4---4---4-4---4-4---4-4---|
D|-4-4---4-4---4---4-4---4-4---4-4---|

e|-----------------------------------|
B|-----------------------------------|
G|-----------------------------------|
D|-----7-----7---7-----4-----6-----7-|
A|-4-4---4-4---4---4-4---4-4---4-4---|
D|-4-4---4-4---4---4-4---4-4---4-4---|

e|-----------------------------------|
B|-----------------------------------|
G|---------------------7-----6-------|
D|-----7-----7---7-----------------7-|
A|-0-0---0-0---0---0-0---0-0---0-0---|
D|-0-0---0-0---0---0-0---0-0---0-0---|

e|--------------------------------------|
B|--------------------------------------|
G|--------------------------------------|
D|-----7-----9---11-----9-----11-----12-|
A|-0-0---0-0---0----0-0---0-0----0-0----|
D|-0-0---0-0---0----0-0---0-0----0-0----|

Pre-chorus

Chorus

Post-Chorus

verse 1 (now outro)

there it is, pretty simple and easy to play, message me with any questions

-Nick
Tap to rate this tab
 
# A B C D E F G H I J K L M N O P Q R S T U V W X Y Z