Song name
# A B C D E F G H I J K L M N O P Q R S T U V W X Y Z

Holly Brook - Like Blood Like Honey tab

-----------------------------------------------------------------------------
                       Like Blood Like Honey- Holly Brook
-----------------------------------------------------------------------------

Tabbed by: Claudia
Email: Sportyrockchica@aol.com

Tuning: Standard

This is a very easy song to play, and I am sure this tabs is 99.999% correct (it may be 
little off in the bridge, if you think you know it better email me).  I finger pluck 
song so it sounds smoother but you don't have to.


Intro/verse/chorus
(it's all the same riff throught the song until you get to the bridge)

e|------3-------3-------3-------|
B|----3--3----3--3----3--3------|
G|---0-0--0--0-0--0--0-0--0-----|
D|--2-------2-------------------|
A|------------------2-------3-pm|
E|------------------------------|


Bridge, pt 1

e|------3------3------3--------|
B|----3--3---3--3---3--3-------|
G|---0-0--0-0-0--0-0-0--0------|   (x2, then go right into Bridge, pt 2)
D|--1------1-------------------|
A|----------------2------3-pm--|
E|-----------------------------|


Bridge, pt 2

e|------2------3------3------3------3------3------3------3---3-|
B|----2--2---2--2---3--3---3--3---3--3---3--3---3--3---3--3--3-|
G|---0-0--0-0-0--0-0-0--0-0-0--0-0-0--0-0-0--0-0-0--0-0-0--0-2~|
D|--2------2------2------2------2------2------2------2-------2-|
A|-----------------------------------------------------------0-|
E|-------------------------------------------------------------|

Last Verse ("seven sunrises...")
e|--3---3-3--------------3-------3-------3-------|
B|--3---3-3------------3--3----3--3----3--3------|
G|--0~--0-0-----------0-0--0--0-0--0--0-0--0-----|
D|--2---2-0---(x3)---2-------2-------------------|
A|--2---3-2--------------------------2-------3-pm|
E|--x---x-2--------------------------------------|

Then play the chorus part again and slow down at the end of the song

Question, comments?
dont be afraid to ask!! lemme know what you think of it!!

Much luv
Claudia <3
Tap to rate this tab
# A B C D E F G H I J K L M N O P Q R S T U V W X Y Z