Guitaretab - guitar tabs
Song name
# A B C D E F G H I J K L M N O P Q R S T U V W X Y Z

Holly Buddy - Words Of Love tab

    -----------------------------------------------------------

    THE BEATLES - WORDS OF LOVE (B Holly) From BEATLES FOR SALE
                  album. Released on December, 4th, 1964.
   
    -----------------------------------------------------------

    Tabbed by:PJVillanueva





    Hold me close and tell me how you feel
    Tell me love is real Mmmmmmmmm

    Words of love you whisper soft and true
    Darling I love you Mmmmmmmmm 

                 SOLO

    Let me hear you say the words I long to hear
    Darling when you're near Mmmmmmmmm

    Words of love you whisper soft and true
    Darling I love you Mmmmmmmmm Hmmmmmmmmm Aaaaaaaaaahh




                                                                Ab
  e|------- ------- ------- -------|------- ------- ------- -------|
  B|-------------------------------|----------------------------1--|
  G|-------------------------------|----------------------------1--|
  D|-------------------------------|----------------------------1--|
  A|-------------------------------|-------------------------------|
  E|-------------------------------|-------------------------------|


    INTRO

    A                           C#  D           E
  e|0------ 0------ 0------ 0---1-/|2---2-- 2---0-- 0------ ----0--|
  B|2-------2-------2-------2---2-/|3---3---3---0---0-----------0--|
  G|2-------2-------2-------2---1-/|2---2---2---1---1-----------1--|
  D|2-------2-------2-------2---0--|0---0---0---2---2-----------2--|
  A|0-------0-------0-------0------|------------2---2-----------2--|
  E|-------------------------------|------------0---0-----------0--|

  e|------- ------- ------- ------0|----2-- ------- 0------ ----0--|
  B|5-------5-\-----2-/-----5------|--------3-----------0----------|
  G|-------------------------------|2-----------2-----------1------|
  D|-------------------------------|-------------------------------|
  A|-------------------------------|-------------------------------|
  E|-------------------------------|-------------------------------|




    A                           C#  D           E
  e|0---0-- 0------ 0------ 0---1-/|2---2-- 2---0-- 0------ ----0--|
  B|2---2---2-------2-------2---2-/|3---3---3---0---0-----------0--|
  G|2---2---2-------2-------2---1-/|2---2---2---1---1-----------1--|
  D|2---2---2-------2-------2---0--|0---0---0---2---2-----------2--|
  A|0---0---0-------0-------0------|------------2---2-----------2--|
  E|-------------------------------|------------0---0-----------0--|

  e|------- ------- ------- -------|----2-- ------- 0------ ----0--|
  B|5-------5-\-----2-/-----5------|--------3-----------0----------|
  G|-------------------------------|2-----------2-----------1------|
  D|-------------------------------|-------------------------------|
  A|-------------------------------|-------------------------------|
  E|-------------------------------|-------------------------------|




    A                               D           E
  e|0---0-- 0------ 0------ 0-----0|2---2-- 2---0-- 0------ ----0--|  
  B|2---2---2-------2-------2-----2|3---3---3---0---0-----------0--|   
  G|2---2---2-------2-------2-----2|2---2---2---1---1-----------1--|
  D|2---2---2-------2-------2-----2|0---0---0---2---2-----------2--|
  A|0-------0-------0-------0-----0|------------2---2-----------2--|
  E|-------------------------------|------------0---0-----------0--|

  e|------- ------- ------- ------0|----2-- ------- 0------ ----0--|
  B|5-------5-\-----2-/-----5------|--------3-----------0----------|
  G|-------------------------------|2-----------2-----------1------|
  D|-------------------------------|-------------------------------|
  A|-------------------------------|-------------------------------|
  E|-------------------------------|-------------------------------|




    A5                  E           D               E
  e|5------ 5-----5 5---0-- -------|----2-- ------- 0------ -------|
  B|5-------5-----5-5---5----------|--------3----------------------|
  G|-------------------------------|2-----------2------------------|
  D|-------------------------------|-------------------------------|
  A|-------------------------------|-------------------------------|
  E|-------------------------------|-------------------------------|

  e|0------ 0------ 0---0-- -------|----2-- ------- 0------ -------|
  B|----------------------------0--|--------3-----------2---0------|
  G|-------------------------------|2-----------2---------------1--|
  D|-------------------------------|-------------------------------|
  A|-------------------------------|-------------------------------|
  E|-------------------------------|-------------------------------|


    VERSE
    00:16
    A                               D               E
  e|0------ 0------ 0------ 0------|2---2-- 2---2-- 0---0-- 0---0--|
  B|2-------2-------2-------2------|3---3---3---3---0---0---0---0--|
  G|2-------2-------2-------2------|2---2---2---2---1---1---1---1--|
  D|2-------2-------2-------2------|0---0---0---0---2---2---2---2--|
  A|0-------0-------0-------0------|----------------2---2---2---2--|
  E|-------------------------------|----------------0---0---0---0--|

  e|------- ------- ------- -------|----2-- ------0 ------- -------|
  B|-------------------------------|--------3----------------------|
  G|2------------------------------|2-----------2------------------|
  D|-------------------------------|-------------------------------|
  A|-------------------------------|-------------------------------|
  E|-------------------------------|-------------------------------|
    Hold    me      close   and                     tell    how you
                                                        me


    A                           C#  D               E
  e|0------ 0------ 0------ 0---1-/|2---2-- 2---2-- 0---0-- 0---0--|
  B|2-------2-------2-------2---2-/|3---3---3---3---0---0---0---0--|
  G|2-------2-------2-------2---1-/|2---2---2---2---1---1---1---1--|
  D|2-------2-------2-------2---0--|0---0---0---0---2---2---2---2--|
  A|0-------0-------0-------0------|----------------2---2---2---2--|
  E|-------------------------------|----------------0---0---0---0--|

  e|------- ------- ------- -------|----2-- ------- 0------ -------|
  B|--------2-------2-------2---2--|--------3-----------0----------|
  G|2-------2-------2-------2------|2-----------2-----------1------|
  D|-------------------------------|-------------------------------|
  A|-------------------------------|-------------------------------|
  E|-------------------------------|-------------------------------|
       feel                                         Tell    love
                                                        me      is



  e|0------ 0------ 0------ 0---1-/|2---2-- 2---0-- 0------ 0------|
  B|2-------2-------2-------2---2-/|3---3---3---0---0-------0------|
  G|2-------2-------2-------2---1-/|2---2---2---1---1-------1------|
  D|2-------2-------2-------2---0--|0---0---0---2---2-------2------|
  A|0-------0-------0-------0------|------------2---2-------2------|
  E|-------------------------------|------------0---0-------0------|

  e|------- ------- ------- -------|----2-- ------- 0------ -------|
  B|2-------2-------2-------2------|--------3-----------0----------|
  G|2-------2-------2-------2---1--|2-----------2-----------1------|
  D|-------------------------------|-------------------------------|
  A|-------------------------------|-------------------------------|
  E|-------------------------------|-------------------------------|
    real                                            Mmmmmmmmmmmmmmm




  e|0------ 0------ 0------ 0------|2---2-- 2------ 0---0-- ----0--|
  B|2-------2-------2-------2------|3---3---3-------0---0-------0--|
  G|2-------2-------2-------2------|2---2---2-------1---1-------1--|
  D|2-------2-------2-------2------|0---0---0-------2---2-------2--|
  A|0-------0-------0-------0------|----------------2---2-------2--|
  E|-------------------------------|----------------0---0-------0--|
[ Tab from: http://www.guitaretab.com/h/holly-buddy/8505.html ]
  e|------- ------- ------- -------|----2-- ------- 0------ -------|
  B|--------2-------2-------2-----0|--------3-----------2---0------|
  G|--------2-------2-------2------|2-----------2---------------1--|
  D|-------------------------------|-------------------------------|
  A|-------------------------------|-------------------------------|
  E|-------------------------------|-------------------------------|
    mmmmmmmmmmmmmmmmmmmmmmmmmmmmmmmmmmmmmmmmmmmmmmmmmmmmmmmmmmmmmmm

    VERSE
    00:31                                                            
  e|0------ 0------ 0------ 0---1-/|2---2-- 2---0-- 0---0-- 0---0--|
  B|2-------2-------2-------2---2-/|3---3---3---0---0---0---0---0--|
  G|2-------2-------2-------2---1-/|2---2---2---1---1---1---1---1--|
  D|2-------2-------2-------2---0--|0---0---0---2---2---2---2---2--|
  A|0-------0-------0-------0------|------------2---2---2---2---2--|
  E|-------------------------------|------------0---0---0---0---0--|

  e|------- ------- ------- -------|----2-- ------- 0------ -------|
  B|----------------2--------------|--------------------2---0------|
  G|----------------2-----------1--|2-----------2---------------1--|
  D|----------------2--------------|-------------------------------|
  A|-------------------------------|-------------------------------|
  E|-------------------------------|-------------------------------|
    Words   of      love    you                     whisper soft
                                                                and



  e|0------ 0------ 0------ 0---1-/|2---2-- 2---0-- 0------ 0---0--|
  B|2-------2-------2-------2---2-/|3---3---3---0---0-------0---0--|
  G|2-------2-------2-------2---1-/|2---2---2---1---1-------1---1--|
  D|2-------2-------2-------2---0--|0---0---0---2---2-------2---2--|
  A|0-------0-------0-------0------|------------2---2-------2---2--|
  E|-------------------------------|------------0---0-------0---0--|

  e|------- ------- ------- -------|----2-- ------- 0------ -------|
  B|2-------2-------2-------2------|--------3---------------0------|
  G|2-------2-------2-------2---1--|2-----------2---------------1--|
  D|-------------------------------|-------------------------------|
  A|-------------------------------|-------------------------------|
  E|-------------------------------|-------------------------------|
    true                                            Darling I   love




  e|0------ 0------ 0------ 0---1-/|2------ 2------ 0------ 0---0--|
  B|2-------2-------2-------2---2-/|3-------3-------0-------0---0--|
  G|2-------2-------2-------2---1-/|2-------2-------1-------1---1--|
  D|2-------2-------2-------2---0--|0-------0-------2-------2---2--|
  A|0-------0-------0-------0------|----------------2-------2---2--|
  E|-------------------------------|----------------0-------0---0--|

  e|------- ------- ------- -------|----2-- ------- 0------ -------|
  B|2-------2-------2-------2------|--------3-----------2---0------|
  G|2-------2-------2-------2---1--|2---------------------------1--|
  D|-------------------------------|-------------------------------|
  A|-------------------------------|-------------------------------|
  E|-------------------------------|-------------------------------|
    you                                             Mmmmmmmmmmmmmmm




  e|0------ 0------ 0------ 0---1-/|2------ 2------ 0------ 0---0--|
  B|2-------2-------2-------2---2-/|3-------3-------0-------0---0--|
  G|2-------2-------2-------2---1-/|2-------2-------1-------1---1--|
  D|2-------2-------2-------2---0--|0-------0-------2-------2---2--|
  A|0-------0-------0-------0------|----------------2-------2---2--|
  E|-------------------------------|----------------0-------0---0--|

  e|------- ------- ------- -------|------- ------- 4-/---- 7------|
  B|2-------2-------2-------2------|----------------5-/-----9--10--|
  G|2-------2-------2-------2------|-------------------------------|
  D|-------------------------------|-------------------------------|
  A|-------------------------------|-------------------------------|
  E|-------------------------------|-------------------------------|
    mmmmmmmmmmmmmmmmmmmmmmmmmmmmmmmmmmmmmmmmmmmmmmmmmmmmmmmmmmmmmmm


    SOLO
    00:47
  
  e|9\----- 5\----- 0/----- 5------|2/--5-- ----5-- 4/----- 7-/-9--|
  B10\------5\------2/------5------|3/--7-------7---5/------9-/10--|
  G|-------------------------------|-------------------------------|
  D|-------------------------------|-------------------------------|
  A|-------------------------------|-------------------------------|
  E|-------------------------------|-------------------------------|



  e|9\----- 5\----- 0/----- 5\-----|2/--5-- ----5-- 4/----- 7-/-9--|
  B10\------5\------2/------5\-----|3/--7-------7---5/------9-/10--|
  G|-------------------------------|-------------------------------|
  D|-------------------------------|-------------------------------|
  A|-------------------------------|-------------------------------|
  E|-------------------------------|-------------------------------|



  e|9\----- 5\----- 0/----- 5\-----|2/--5-- ----5-- 4/----- 7------|
  B10\------5\------2/------5\-----|3/--7-------7---5/------9------|
  G|-------------------------------|-------------------------------|
  D|-------------------------------|-------------------------------|
  A|-------------------------------|-------------------------------|
  E|-------------------------------|-------------------------------|


   
  e|5------ 5-----5 ------- -------|----2-- ------- 0------ -------|
  B|5-------5-------5---5-------0--|--------3-----------2---0---0--|
  G|-------------------------------|2-----------2------------------|
  D|-------------------------------|-------------------------------|
  A|-------------------------------|-------------------------------|
  E|-------------------------------|-------------------------------|


    01:03

  e|------- ------- ------- ------0|----2-- ----2-- 0------ -------|
  B|0H2-----2-------2-------2------|--------------------2---0---0--|
  G|0H2-----2-------2-------2------|2------------------------------|
  D|-------------------------------|-------------------------------|
  A|-------------------------------|-------------------------------|
  E|-------------------------------|-------------------------------|



  e|------- ------- ------- ------0|----2-- ---2--- 0------ -------|
  B|1/2-----2-------2-------2------|------------3-------2---0---0--|
  G|1/2-----2-------2-------2------|2------------------------------|
  D|-------------------------------|-------------------------------|
  A|-------------------------------|-------------------------------|
  E|-------------------------------|-------------------------------|



  e|------- ------- ------- ------0|----2-- ----2-- 0------ ----0--|
  B|1/2-----2-------2-------2------|------------3-------2---0------|
  G|1/2-----2-------2-------2------|2------------------------------|
  D|-------------------------------|-------------------------------|
  A|-------------------------------|-------------------------------|
  E|-------------------------------|-------------------------------|



  e|------- 0------ 0------ 0-----0|----2-- ------- 0------ -------|
  B|5-------5-\-----2-/-----5------|--------3-----------2---0------|
  G|-------------------------------|2-----------2---------------1--|
  D|-------------------------------|-------------------------------|
  A|-------------------------------|-------------------------------|
  E|-------------------------------|-------------------------------|


    VERSE
    01:18
    Let me hear you say the words I long to hear
    Darling when you're near Mmmmmmmmm

    01:34
    Words of love you whisper soft and true
    Darling I love you Mmmmmmmmm Hmmmmmmmmm Aaaaaaaaahh






        B  Bend
        R  Release
        /  Slide up
        \  Slide down
        H  Hammer-on
        P  Pull-off
        ~  Vibrato
        +  Harmonic
        x  Mute note
        .  Play note like a dot in standard notation
        ^  Ties two notes together
        (. Pause



Related for Words Of Love tab
Words Of Love chords by Holly Buddy