Guitaretab - guitar tabs
Song name
# A B C D E F G H I J K L M N O P Q R S T U V W X Y Z

Holly Throsby - Wer Good People tab

Holly Throsby
We're Good People But Why Don't We Show It?
On Night

Tabbed by solomon thomas

Tuning EADGBd

Intro and verse:

d----------0------------0---------------------------------------------|
B--------3---3--------3---3----------0------------0-------------0-----|
G------4-------4----4-------4------4---4--------4---4---------4---4---|
D----5------------4--------------5-------5----5--------5----5-------5-|
A------------------------------7------------5-------------3-----------|
E---------------------------------------------------------------------|

d--------------------------------------------------------------------|
B---------0-------------------0-------------0------------------------|
G-------4---4---------------4---4---------4---4----------------------|
D-----5-------------------5-------5-----5-------5--------------------|
A---5------------0h2p0-----------------------------------------------|
E-----------------------3------------3-------------------------------|

Chorus:
d---------------------------------------------------------------------|
B--------0--------------0------------0------------0-------------0-----|
G------4----4---------4---4--------4---4--------4---4---------4---4---|
D----5---------5----5-------5----5-------5----5--------5----5-------5-|
A--3--------------5------------7------------9-------------3-----------|
E---------------------------------------------------------------------|
[ Tab from: http://www.guitaretab.com/h/holly-throsby/114297.html ]
d--------------------------------------------------------------------|
B---------0-------------------0-------------0------------------------|
G-------4---4---------------4---4---------4---4----------------------|
D-----5-------------------5-------5-----5-------5--------------------|
A---0------------0h2p0-----------------------------------------------|
E-----------------------3------------3-------------------------------|

Bridge:

d-------------------------------------------------------------------------------|
B--------0--------------0------------0------------0-------------0----------0----|
G------4----4---------4---4--------4---4--------4---4---------4---4-------4-4--|
D----5---------5----5-------5----5-------5----5--------5----5-------5---5------5|
A--3--------------5------------7------------7-------------3-----------3---------|
E-------------------------------------------------------------------------------|

d------------------------------------------------------|
B---------------0-------------0------------------------|
G-------------4---4---------4---4----------------------|
D-----------5-------5-----5-------5--------------------|
A--0h2p0-----------------------------------------------|
E---------3------------3-------------------------------|

d-------------------------------------------------------------------------------|
B--------0--------------0------------0------------0-------------0----------0----|
G------4----4---------4---4--------4---4--------4---4---------4---4-------4-4--|
D----5---------5----5-------5----5-------5----5--------5----5-------5---5------5|
A--7--------------5------------3------------3-------------2-----------2---------|
E-------------------------------------------------------------------------------|


d--------------------------------------------------|
B----------0-------------0-------------------------|
G--------4---4---------4---4-----------------------|
D------5-------5-----5-------5---------------------|
A----5------------5-------------5------------------|
E--------------------------------------------------|


Progression 

Intro x 2
verse x 2
chorus
verse x 2
chorus x 2
bridge
verse x 2
chorus x 2

Related for Wer Good People tab