Song name
# A B C D E F G H I J K L M N O P Q R S T U V W X Y Z

Holly Throsby - Were Good People But Why Dont We Show It tab

"We're Good People But Why Don't We Show It?" -Holly Throsby (Album: On Night)
This song is in high drop D or EADGBd. 

(Intro)
d|--------0-----|--------0-----|--------------|---------------|
B|------3---3---|------3---3---|--------0-----|--------0------|
G|----0-------0-|----0-------0-|------4---4---|------4---4----|
D|--5-----------|--4-----------|----5-------5-|----5-------5--|
A|--------------|--------------|--7-----------|--5------------|
E|--------------|--------------|--------------|---------------|

|--------------|------------------|--------------|--------------|
|--------0-----|--------0---------|--------0-----|--------0-----|
|------4---4---|------4-----------|------4---4---|------4---4---|
|----5-------5-|----5-------------|----0-------0-|----0-------0-|
|--3-----------|--5-------0h2p0---|--------------|--------------|
|--------------|------------------|--3-----------|--3-----------|  x2


(Verse)
|--------0-----|--------0-----|--------------|---------------|
|------3---3---|------3---3---|--------0-----|--------0------|
|----0-------0-|----0-------0-|------4---4---|------4---4----|
|--5-----------|--4-----------|----5-------5-|----5-------5--|
|--------------|--------------|--7-----------|--5------------|
|--------------|--------------|--------------|---------------|
   Old           lover          you miss me     ov - er the

|--------------|------------------|--------------|--------------|
|--------0-----|--------0---------|--------0-----|--------0-----|
|------4---4---|------4-----------|------4---4---|------4---4---|
|----5-------5-|----5-------------|----0-------0-|----0-------0-|
|--3-----------|--5-------0h2p0---|--------------|--------------|
|--------------|------------------|--3-----------|--3-----------| 
   ocean     I  hope this finds you  well

|--------0-----|--------0-----|--------------|---------------|
|------3---3---|------3---3---|--------0-----|--------0------|
|----0-------0-|----0-------0-|------4---4---|------4---4----|
|--5-----------|--4-----------|----5-------5-|----5-------5--|
|--------------|--------------|--7-----------|--5------------|
|--------------|--------------|--------------|---------------|
   warm           sun  on  my    back    the   earth  on its 


|--------------|------------------|--------------|--------------|
|--------0-----|--------0---------|--------0-----|--------0-----|
|------4---4---|------4-----------|------4---4---|------4---4---|
|----5-------5-|----5-------------|----0-------0-|----0-------0-|
|--3-----------|--5-------0h2p0---|--------------|--------------|
|--------------|------------------|--3-----------|--3-----------| 
   ax - is  the  violence when we    met

(Chorus)
|--------------|--------------|--------------|--------------|
|--------0-----|--------0-----|--------0-----|------0---0---|
|------4---4---|------4---4---|------4---4---|----4---4---4-|
|----5-------5-|----5-------5-|----5-------5-|--4-----------|
|--3-----------|--5-----------|--7-----------|--------------|
|--------------|--------------|--------------|--------------|
   We're          go - od        peo-ple  but  why don't  we


|--------------|------------------|--------------|--------------|
|--------0-----|--------0---------|--------0-----|--------0-----|
|------4---4---|------4-----------|------4---4---|------4---4---|
|----5-------5-|----5-------------|----0-------0-|----0-------0-|
|--3-----------|--0-------0h2p0---|--------------|--------------|
|--------------|------------------|--3-----------|--3-----------| 
   show it?

(Verse 2)
|--------0-----|--------0-----|--------------|---------------|
|------3---3---|------3---3---|--------0-----|--------0------|
|----0-------0-|----0-------0-|------4---4---|------4---4----|
|--5-----------|--4-----------|----5-------5-|----5-------5--|
|--------------|--------------|--7-----------|--5------------|
|--------------|--------------|--------------|---------------|
   Dead           birds on my    stair-well     some  ugly 

|--------------|------------------|--------------|--------------|
|--------0-----|--------0---------|--------0-----|--------0-----|
|------4---4---|------4-----------|------4---4---|------4---4---|
|----5-------5-|----5-------------|----0-------0-|----0-------0-|
|--3-----------|--5-------0h2p0---|--------------|--------------|
|--------------|------------------|--3-----------|--3-----------| 
   morning        fell  from their   nests


|--------0-----|--------0-----|--------------|---------------|
|------3---3---|------3---3---|--------0-----|--------0------|
|----0-------0-|----0-------0-|------4---4---|------4---4----|
|--5-----------|--4-----------|----5-------5-|----5-------5--|
|--------------|--------------|--7-----------|--5------------|
|--------------|--------------|--------------|---------------|
   No           don't tell your  parents       when  we  start

|--------------|------------------|--------------|--------------|
|--------0-----|--------0---------|--------0-----|--------0-----|
|------4---4---|------4-----------|------4---4---|------4---4---|
|----5-------5-|----5-------------|----0-------0-|----0-------0-|
|--3-----------|--5-------0h2p0---|--------------|--------------|
|--------------|------------------|--3-----------|--3-----------| 
   sharing        each   other's     beds

(Chorus)
|--------------|--------------|--------------|--------------|
|--------0-----|--------0-----|--------0-----|------0---0---|
|------4---4---|------4---4---|------4---4---|----4---4---4-|
|----5-------5-|----5-------5-|----5-------5-|--4-----------|
|--3-----------|--5-----------|--7-----------|--------------|
|--------------|--------------|--------------|--------------|
   We're          go - od        peo-ple  but  why don't  we


|--------------|------------------|--------------|--------------|
|--------0-----|--------0---------|--------0-----|--------0-----|
|------4---4---|------4-----------|------4---4---|------4---4---|
|----5-------5-|----5-------------|----0-------0-|----0-------0-|
|--3-----------|--0-------0h2p0---|--------------|--------------|
|--------------|------------------|--3-----------|--3-----------| 
   show it?

|--------------|--------------|--------------|--------------|
|--------0-----|--------0-----|--------0-----|------0---0---|
|------4---4---|------4---4---|------4---4---|----4---4---4-|
|----5-------5-|----5-------5-|----5-------5-|--4-----------|
|--3-----------|--5-----------|--7-----------|--------------|
|--------------|--------------|--------------|--------------|
   We're          go - od        peo-ple  but  why don't  we


|--------------|------------------|--------------|--------------|
|--------0-----|--------0---------|--------0-----|--------0-----|
|------4---4---|------4-----------|------4---4---|------4---4---|
|----5-------5-|----5-------------|----0-------0-|----0-------0-|
|--3-----------|--0-------0h2p0---|--------------|--------------|
|--------------|------------------|--3-----------|--3-----------| 
   show it?

(Bridge)
|--------------|--------------|--------------|--------------|
|--------0-----|--------0-----|--------0-----|--------0-----|
|------4---4---|------4---4---|------4---4---|------4---4---|
|----5-------5-|----5-------5-|----5-------5-|----5-------5-|
|--3-----------|--5-----------|--7-----------|--7-----------|
|--------------|--------------|--------------|--------------|
   ooooo...

|--------------|------------------|--------------|--------------|
|--------0-----|--------0---------|--------0-----|--------0-----|
|------4---4---|------4-----------|------4---4---|------4---4---|
|----5-------5-|----5-------------|----0-------0-|----0-------0-|
|--3-----------|--3-------0hp2p0--|--------------|--------------|
|--------------|------------------|--3-----------|--3-----------|
   oooo...

|--------------|--------------|--------------|--------------|
|--------0-----|--------0-----|--------0-----|--------0-----|
|------4---4---|------4---4---|------4---4---|------4---4---|
|----5-------5-|----5-------5-|----5-------5-|----5-------5-|
|--7-----------|--5-----------|--3-----------|--3-----------|
|--------------|--------------|--------------|--------------|
   oooooo....

|--------------|--------------|--------------|--------------|
|--------0-----|--------0-----|--------0-----|--------0-----|
|------4---4---|------4---4---|------4---4---|------4---4---|
|----5-------5-|----5-------5-|----5-------5-|----5-------5-|
|--2-----------|--2-----------|--5-----------|--5-----------|
|--------------|--------------|--------------|--------------|
   oooo...

(Verse 3)
|--------0-----|--------0-----|--------------|---------------|
|------3---3---|------3---3---|--------0-----|--------0------|
|----0-------0-|----0-------0-|------4---4---|------4---4----|
|--5-----------|--4-----------|----5-------5-|----5-------5--|
|--------------|--------------|--7-----------|--5------------|
|--------------|--------------|--------------|---------------|
   I             want to raise   dogs     -     dogs and

|--------------|------------------|--------------|--------------|
|--------0-----|--------0---------|--------0-----|--------0-----|
|------4---4---|------4-----------|------4---4---|------4---4---|
|----5-------5-|----5-------------|----0-------0-|----0-------0-|
|--3-----------|--5-------0h2p0---|--------------|--------------|
|--------------|------------------|--3-----------|--3-----------| 
   money

|--------0-----|--------0-----|--------------|---------------|
|------3---3---|------3---3---|--------0-----|--------0------|
|----0-------0-|----0-------0-|------4---4---|------4---4----|
|--5-----------|--4-----------|----5-------5-|----5-------5--|
|--------------|--------------|--7-----------|--5------------|
|--------------|--------------|--------------|---------------|
   storm        threatening to  leave          town and i'll start

|--------------|------------------|--------------|--------------|
|--------0-----|--------0---------|--------0-----|--------0-----|
|------4---4---|------4-----------|------4---4---|------4---4---|
|----5-------5-|----5-------------|----0-------0-|----0-------0-|
|--3-----------|--5-------0h2p0---|--------------|--------------|
|--------------|------------------|--3-----------|--3-----------| 
   runnning

(Chorus)
|--------------|--------------|--------------|--------------|
|--------0-----|--------0-----|--------0-----|------0---0---|
|------4---4---|------4---4---|------4---4---|----4---4---4-|
|----5-------5-|----5-------5-|----5-------5-|--4-----------|
|--3-----------|--5-----------|--7-----------|--------------|
|--------------|--------------|--------------|--------------|
   We're          go - od        peo-ple  but  why don't  we


|--------------|------------------|--------------|--------------|
|--------0-----|--------0---------|--------0-----|--------0-----|
|------4---4---|------4-----------|------4---4---|------4---4---|
|----5-------5-|----5-------------|----0-------0-|----0-------0-|
|--3-----------|--0-------0h2p0---|--------------|--------------|
|--------------|------------------|--3-----------|--3-----------| 
   show it?

|--------------|--------------|--------------|--------------|
|--------0-----|--------0-----|--------0-----|------0---0---|
|------4---4---|------4---4---|------4---4---|----4---4---4-|
|----5-------5-|----5-------5-|----5-------5-|--4-----------|
|--3-----------|--5-----------|--7-----------|--------------|
|--------------|--------------|--------------|--------------|
   We're          go - od        peo-ple  but  why don't  we


|--------------|------------------|-(0)-|
|--------0-----|--------0---------|-(0)-|
|------4---4---|------4-----------|-(0)-|
|----5-------5-|----5-------------|--0--|
|--3-----------|--0-------0h2p0---|--2--|
|--------------|------------------|--3--|
   show it?
Tap to rate this tab
# A B C D E F G H I J K L M N O P Q R S T U V W X Y Z