Song name
# A B C D E F G H I J K L M N O P Q R S T U V W X Y Z

Holly Throsby - Were Good People But Why Dont We Show It tab

Holly Throsby
We're Good People But Why Don't We Show It?
On Night

Tabbed by solomon thomas

Standard Tuning

Intro and verse

e--------------------------------------------------------------------|
B--------3-3-3--------3-3-3--------0-0-0--------0-0-0--------0-0-0---|
G------4-------4----4-------4----0-------0----0-------0----0-------0-|
D----5------------4------------2------------0------------------------|
A--------------------------------------------------------3-----------|
E--------------------------------------------------------------------|

e------------------------------------------------------------------|
B-------0-0-0-------------0-0-0---------0-0------------------------|
G-----0-----------------0-------0-----0----------------------------|
D---0--------------------------------------------------------------|
A----------------0h2-----------------------------------------------|
E---------------------3------------3-------------------------------|

Chorus:

e----------------------------------------------------------------------|
B-------0-0--------0-0--------0-0--------0-0--------0-0--------0-0-----|
G-----0-----0----0-----0----0-----0----0-----0----0-----0----0-----0---|
D--------------0----------2----------4---------------------------------|
A---3-------------------------------------------3----------0-----------|
E----------------------------------------------------------------------|

e-------------------------------------------------------------------|
B-------------0-0--------0-0----------------------------------------|
G-----------0-----0----0--------------------------------------------|
D-------------------------------------------------------------------|
A---0h2-------------------------------------------------------------|
E---------3----------3----------------------------------------------|

Bridge:

e----------------------------------------------------------------------|
B-------0-0--------0-0--------0-0--------0-0--------0-0--------0-0-----|
G-----0-----0----0-----0----0-----0----0-----0----0-----0----0-----0---|
D--------------0----------2----------2---------------------------------|
A---3-------------------------------------------3----------3-----------|
E----------------------------------------------------------------------|

e-------------------------------|
B-------------0-0--------0-0----|
G-----------0-----0----0-----0--|
D-------------------------------|
A---0h2-------------------------|
E---------3----------3----------|

e----------------------------------------------------------------------|
B-------0-0--------0-0--------0-0--------0-0--------0-0--------0-0-----|
G-----0-----0----0-----0----0-----0----0-----0----0-----0----0-----0---|
D---2----------0-------------------------------------------------------|
A-------------------------3----------3----------2----------2-----------|
E----------------------------------------------------------------------|

e-------------------------|
B-------0-0--------0-0----|
G-----0-----0----0-----0--|
D---0----------0----------|
A-------------------------|
E-------------------------|


Intro x 2
verse x 2
chorus
verse x 2
chorus x 2
bridge
verse x 2
chorus x 2
Tap to rate this tab
# A B C D E F G H I J K L M N O P Q R S T U V W X Y Z