Song name
# A B C D E F G H I J K L M N O P Q R S T U V W X Y Z

Holly Tree - Hey Stop It tab

HEY! STOP IT - ARTISTA -> Holly Tree
Arthur Siqueira        srburns@bol.com.br


Hey! Stop It

INTRO
                                                                           PALM-MUTED
e--------------------------------------------------------------------------------|
b---------------------3-4h-3h-4h-3h-4h-3h-4h-3-----------------------------------|
g--------------------------------------------------------------------------------|
d-----6----------------------------------------------------------------6-6-6-6---|
a-----4----------------------------------------------------------------4-4-4-4---|
E--------------------------------------------------------------------------------|

INTRO 2

FIND THE RITHM
2x
e------------------------------------------|
b------------------------------------------|
g------------------------------------------|
d----6-------------6-----------------------|
a----4----4-----6--4-----------------------|
E---------2-----4--------------------------|

VERSE 1
e----------------------------------------------|
b----------------------------------------------|
g----------------------------------------------|
d----6---------6---------6-------------6-------|
a----4----4----4---6-----4---4-----6---4-------|
E---------2---------4--------2-----4-----------|

CHORUS

e------------------------------------------|
b------------------------------------------|
g------------------------------------------|
d----6--------------6----------------------|
a----4----4-----6---4----------------------|
E---------2-----4--------------------------|

FINAL CHORUS 2x
e--------------------------------|
b--------------------------------|
g--------------------------------|
d----10--------------10----------|
a----8----8----10----8-----------|
E---------6----8-----------------|

Eh praticamente isso!
HOLLY TREE is: George - guitar vocals, Tito -bass, backing vocals Z?-drums
Tap to rate this tab
# A B C D E F G H I J K L M N O P Q R S T U V W X Y Z