Song name
# A B C D E F G H I J K L M N O P Q R S T U V W X Y Z

Holly Williams - Drinkin tab

-------------------------------------------------------------------------------
                             Drinkin' - Holly Williams
-------------------------------------------------------------------------------
Tabbed by: Rebecca
Tuning: Capo on 7th fret

I figured this out from the video. It's super easy, but every other tab I tried to 
find had no capo and different chording. The picking is pretty easy as well.

The intro and the first verse use the picking.
e|--------------------------------------------------------------------------|
B|-----0------------0---------0--------0------------0--------0--------------|
G|--------0---0---------0--------0--------0---0--------0--------0-----------|
D|---0---0---2----0---0-----0---0----0---0---2----0---0----0---0------------|
A|----------3-------------------------------3-------------------------------|
E|-3------------3---------3--------3------------3--------3------------------|

Why are you drinkin' like the night is young?
Why are you drinkin' like the night is young?
The kids are in the bed and the day is long done.
So, why are you drinkin' like the night is young?

(G)                         (Cadd9)    (G)
Why are you screamin' like I don't have ears?
(G)                               (Cadd9)    (G)
Yeah, Why are you screamin' like I don't have ears?
(D)                  (Cadd9) (G)
Baby, I can hear you loud and clear.
(G)                             (Cadd9)    (G)
So, why are you screamin' like I don't have ears?

(G)                      (Cadd9)    (G)
Why are you cheatiní on a woman like this?
(G)                           (Cadd9)    (G)
Hey, why are you cheatiní on a woman like this?
(D)                      (Cadd9)   (G)
I raise your babies and I kiss your lips.
(G)                          (Cadd9)    (G)
So, why are you cheatiní on a woman like this?

Instrumental
(G) (Cadd9) (G)
(G) (Cadd9) (G) 
(D) (Cadd9) (G)
(G) (Cadd9) (G)

(G)                        (Cadd9) (G)
Why are you leaviní like we donít exist?
(G)                              (Cadd9) (G)
Yeah, why are you leaviní like we donít exist?
(D)                           (Cadd9)   (G)
Youíre packing your bags and I clench my fist.
(G)                            (Cadd9) (G)
So, why are you leaviní like we donít exist?

(G)                           (Cadd9)  (G)
Now Iím here drinkiní like the night is young.
(G)                            (Cadd9)  (G)
Hey, Iím here drinkiní like the night is young.
(D)                        (Cadd9)    (G)
Mama took the kids and the moneyís all gone,
(G)                           (Cadd9)  (G)
And Iím here drinkiní like the night is young.

(G)                                (Cadd9)  (G)
Hope we donít die drinkiní like the night is young.
Tap to rate this tab
# A B C D E F G H I J K L M N O P Q R S T U V W X Y Z