Guitaretab - guitar tabs
Song name
# A B C D E F G H I J K L M N O P Q R S T U V W X Y Z

Hollywood Ending - Tvs In Cars tab

BAND: Hollywood Ending
TRACK: TV's In Cars
TABBED BY: Erd (Zerostarr)
CONTACT: astra_triple888@hotmail.com

Listen to CD to work out the rhythms!!!

INTRO/VERSES:

Guitar One:
[ Tab from: http://www.guitaretab.com/h/hollywood-ending/49117.html ]
E|--------------15--15--15------15--------------13--13--13------13--
B|--13--13--13--------------13------13--13--13--------------13------
G|------------------------------------------------------------------
D|------------------------------------------------------------------
A|------------------------------------------------------------------
e|------------------------------------------------------------------

Guitar Two:

   C5       D5        E5       F5

E|--------------------------------------------------------
B|--------------------------------------------------------
G|-----5--------7--------9--------10----------------------
D|--------5--------7--------9---------10------------------
A|--3--------5--------7--------8--------------------------
e|--------------------------------------------------------


CHORUS:

E|---------------
B|---------------
G|--5--7--9--10--
D|--5--7--9--10--
A|--3--5--7--8---
e|---------------
Related for Tvs In Cars tab