Song name
# A B C D E F G H I J K L M N O P Q R S T U V W X Y Z

Hollywood Porn Stars - Andy tab

Help us improve GuitareTab! Take a short survey!
Intro :


Guitar 1
e-------------------------|
B-------------------------|
G-------------------------|
D--2-2--5-5-—7-7----------|
A--2-2--5-5--7-7----------|
E--0-0—-3-3—-5-5—---------|

Guitar 2

e-----12*--------------------------------------|
B----------------------------------------------|
G-12*-----14h16-14s12—12h14—12-----------------|
D------------------------------14--------------|
A----------------------------------------------|
E----------------------------------------------|

Main riff:

Guitar 1

e--------------------------|
B--------------------------|
G--------------------------|
D---2-2-2-2—----7—-5-5-5---|
A---2-2-2-2—X3--7—-5-5-5---|
E---0-0-0-0—----5—-3-3-3---|

Guitar 2

e----12----------------------12-------------------------|
B—15----12----------------------12----------------------|
G----------12-14s16—12--------------12h14—12-12—--------|
D----------------------14-------------------------------|
A-------------------------------------------------------|
E-------------------------------------------------------|


e----12---------------------------------------------|
B—15----12------------------------------------------|
G----------12-14s16—12------12—14*------------------|
D----------------------14---------------------------|
A---------------------------------------------------|
E---------------------------------------------------|


Chorus :

Guitar 1

e—-------------------|
B--------------------|
G--------------------|
D---2----5---9---7---|
A---2----5---9---7---|
E—--0----3---7---5---|

Guitar 2

e-----------------------------|
B-----------------------------|
G-----------------------------|
D-------5—7—5—7*--5—6**--5----|
A-5—7-7--------------------7--|
E-----------------------------|


Then same as main riff

Ending:

Guitar one

e---------|
B---------|
G---------|
D--2-2—till end
A--2-2--|
E--0-0--|

Guitar 2

G—-12---12---


Voili voilou! As we say in french
Related for Andy tab