Song name
# A B C D E F G H I J K L M N O P Q R S T U V W X Y Z

Hollywood Rose - Rocker tab

it'is very simple but it nice

strofe 1*

e----------------------------------------------------------------------------|
a-3--3----------2-2-2-2-----3-3---------2-2-2-2------------------------------|
d-2--2----2-2---2-2-2-2-----2-2---2-2---2-2-2-2------------------------------|
g-0--0----2-2---1-1-1-1-----0-0---2-2---1-1-1-1------------------------------|
b-1--1----1-1---------------1-1---1-1----------------------------------------|
e----------------------------------------------------------------------------|


chorus*

e-1--1--2--2--1--1--2--2--1--1--2--2-|
a-3--3--4--4--3--3--4--4--3--3--4--4-|
d-3--3--4--4--3--3--4--4--3--3--4--4-|
g------------------------------------|
b------------------------------------|
e------------------------------------|
Tap to rate this tab
# A B C D E F G H I J K L M N O P Q R S T U V W X Y Z