Guitaretab - guitar tabs
Song name
# A B C D E F G H I J K L M N O P Q R S T U V W X Y Z

Hollywood Undead - Everywhere I Go tab

Hollywood Undead- Everywhere I Go
Swan Songs- 2008

Tuning- Drop D

Intro / main riff:

e|--15-15-15--13-------------------------------------------------------------|
B|---------------*15----16-16-16-16-13-*15----16-16-16--13-15-15-15----------|
G|---------------------------------------------------------------------------|
D|---------------------------------------------------------------------------|
A|---------------------------------------------------------------------------|
D|---------------------------------------------------------------------------|
[ Tab from: http://www.guitaretab.com/h/hollywood-undead/172575.html ]
e|-------------------------|
B|--11--13-13-13---10-*8---|
G|-------------------------|
D|-------------------------|
A|-------------------------|
D|-------------------------|

Its sort of a chineese/ oriental sounding riff and in the song it sounds like theres a 
tremolo picking at the end of the * notes


Verse/Chorus/Whole Song
e|-------|
B|-------|
G|-------|
D|--5----|
A|--5----|
D|--5----|
    .

e|-----------------------|
B|-----------------------|
G|--------------5-7------|
D|--5~--7~--8~-----------|
A|-----------------------|
E|-----------------------|


Thats prettymuch it. feel free to email me with any additions or changes. 
  Enjoy!
Related for Everywhere I Go tab
Everywhere I Go chords by Hollywood Undead