Guitaretab - guitar tabs
Song name
# A B C D E F G H I J K L M N O P Q R S T U V W X Y Z

Hollywood Undead - Swan Songs tab

==========Undead==========

It's this riff throughout the whole song
|------------------------------------|
|------------------------------------|
|------------------------------------|
|-0-0-7-0-8-0-7-0--------------------|
|-----------------10-8-7-8-10-8-7----|
|---------------------------------10-|

|------------------------------------|
|------------------------------------|
|------------------------------------|
|-0--0-------------------------------|
|-0--0-------------------------------|
|-0--0-------------------------------|

==========Sell Your Soul==========

|--------------------------------------------------------------------|
|--------------------------------------------------------------------|
|--------------------------------------------------------------------|
|-7-7-7-7-7-7-7-7-9-9-9-9-9-9-9-9-10-10--10-10--10--12-12--12-12--12-|
|-7-7-7-7-7-7-7-7-9-9-9-9-9-9-9-9-10-10--10-10--10--12-12--12-12--12-|
|-5-5-5-5-5-5-5-5-7-7-7-7-7-7-7-7--8--8---8--8---8--10-10--10-10--10-|

|---------------------------------------------------------------------------|
|---------------------------------------------------------------------------|
|---------------------------------------------------------------------------|
|-7-7-7-7-7-7-7-7-9-9-9-9-9-9-9-9-10-10--10-10--10--12-12-12-12-12-12-12-12-|
|-7-7-7-7-7-7-7-7-9-9-9-9-9-9-9-9-10-10--10-10--10--12-12-12-12-12-12-12-12-|
|-5-5-5-5-5-5-5-5-7-7-7-7-7-7-7-7--8--8---8--8---8--10-10-10-10-10-10-10-10-|

==========Everywhere I Go==========

the parts to do tremelo picking are easy to figure out
|-15-15-15-13---------------------------------------------------------------|
|-------------15---16-16-16-13-15---16-16-16-13-15-15-15-11-13-13-13-10-8---|
|---------------------------------------------------------------------------|
|---------------------------------------------------------------------------|
|---------------------------------------------------------------------------|
|---------------------------------------------------------------------------|

This is played throughout the verses it's easy to figure out where
|---
|---
|---
|-5-
|-5-
|-5-
  .

==========No Other Place==========

This is played throughout the whole song with a fuck load of distortion
|------------------------------|
|------------------------------|
|------------------------------|
|--------7-/-5---------7-/-5---|
|-2--2-2-5-/-3--2--2-2-5-/-3---|
|-0--0-0--------0--0-0---------|

==========No. 5==========

|--------------------|
|--------------------|
|--------------------|
|--------------------|
|-7-7------7-7--4-4--|
|-5-5------5-5--2-2--|

==========Young==========
[ Tab from: http://www.guitaretab.com/h/hollywood-undead/175567.html ]
Intro
|------3------2------3--------|
|---3-----3------2------3---3-|
|-3---3-----3------2------3---|
|-----------------------------|
|-----------------------------|
|-----------------------------|

Chorus
|-----------------------------------------------------------------|
|-----------------------------------------------------------------|
|-----------------------------------------------------------------|
|-7-7-7-7-7-7-7-7-4-4-4-4-4-4-4-4-2-2-2-2-2-2-2-2-4-4-4-4-4-4-4-4-|
|-7-7-7-7-7-7-7-7-4-4-4-4-4-4-4-4-2-2-2-2-2-2-2-2-4-4-4-4-4-4-4-4-|
|-5-5-5-5-5-5-5-5-2-2-2-2-2-2-2-2-0-0-0-0-0-0-0-0-2-2-2-2-2-2-2-2-|

Verse Palm-Muted
|----------------------------------------|
|----------------------------------------|
|----------------------------------------|
|----------------------------------------|
|-7-7------7-7------5-5------4-4---2-2---|
|-5-5------5-5------3-3------2-2---0-0---|

Pre Chorus Palm-Muted
|-----------------------------------------------------------------|
|-----------------------------------------------------------------|
|-----------------------------------------------------------------|
|-----7-7-7-7-7-7-----7-7-7-7-7-7-----5-5-5-5-5-5-----------------|
|-7-7-------------7-7-------------5-5-------------4-4-------------|
|-5-5-------------5-5-------------3-3-------------2-2-------------|

==========Black Dahlia==========

Chorus Palm-Muted
|-------------|
|-------------|
|-------------|
|-------------|
|-2-2--020202-|
|-2-2--020202-|

=========This Love, This Hate=========

Chorus
|----------------------------------------------------|
|----------------------------------------------------|
|-77777777-99999999-1010101010101010-1212-1010-99-77-|
|-xxxxxxxx-xxxxxxxx--x-x-x-x-x-x-x-x--x-x--x-x-xx-xx-|
|-55555555-77777777--8-8-8-8-8-8-8-8-1010--8-8-77-55-|
|----------------------------------------------------|

==========Bottle and a Gun==========

No Guitar As Far As I Can Tell

==========California==========

Play this at the end of the intro
|------|
|------|
|------|
|-xx-x-
|-xx-x-
|-xx-x-

Chorus
|-------------------------------------|
|-------------------------------------|
|-------------------------------------|
|-------------------------------------|
|-5-5------7-7------9-9------7-7------|
|-3-3------5-5------7-7------5-5------|

==========City==========

No Guitar

==========The Diary==========

No Guitar

==========Pimpin'==========

No Guitar

==========Paradise Lost==========

Chorus
|-----------------------------------------------------------------|
|-----------------------------------------------------------------|
|-----------------------------------------------------------------|
|-----------------------------------------------------------------|
|-7-7-7-7-7-7-7-7-9-9-9-9-9-9-9-9-2-2-2-2-2-2-2-2-2-2-2-2-2-2-2-2-|
|-5-5-5-5-5-5-5-5-7-7-7-7-7-7-7-7-2-2-2-2-2-2-2-2-2-2-2-2-2-2-2-2-|
                                    . . .   . . .   . . .   . . .
Related for Swan Songs tab
Advertisement will be closed in 10 seconds