Song name
# A B C D E F G H I J K L M N O P Q R S T U V W X Y Z

Hollywood Undead - Christmas In Hollywood tab

Highlighted       Show chord diagrams
The notes being played on the glokenschpiel or whatever it is are:

e|------------------------------------------------|
b|--11-10-8-6-------------------------------------|
g|------------------------------------------------|
d|------------------------------------------------|
a|------------------------------------------------|
e|------------------------------------------------|

Pretty much just over and over and the chords if u want to play them are:
                                     
With the capo on the third fret
                    (i forget what its actually called)
                                         V 
      G     G/F#   Em or G/Em         D or D with the pinky thingy
e|-3---3----0------3-----2---3--------------------|
b|-3---3----0------3-----3---3--------------------|
g|-0---0----0------0-----2---2--------------------|
d|-0---0----2------2-----0---0--------------------|
a|-2---2----2------2------------------------------|
e|-3---2----0------0------------------------------|


and thats it for the whole song
enjoi
Tap to rate this tab
 
# A B C D E F G H I J K L M N O P Q R S T U V W X Y Z