Song name
# A B C D E F G H I J K L M N O P Q R S T U V W X Y Z

Hollywood Undead - Young tab

Young
Hollywood Undead
Swan Songs

This is my first tab..so it might not be 100% accurate.

Intro/Ending
E-------3-3-----------3-3------|
B--------------6-6-------------|
G--5-5-------5-----5------5-5--|
D------------------------------|
A------------------------------|
D------------------------------|

Chorus
E-----------------------------------|
B-----------------------------------|
G--5-------8------------------------|
D--5-(x8)--8-(x8)--6-------8--------|
A--3-------6-------6-(x8)--8--(x8)--|
D------------------6-------8--------|

Verse
all palm mutes
E----------------------------------------------------|
B----------------------------------------------------|
G---5--5---------------------------------------------|
D---5--5-------8--8-----6--6-----5--5-----3--3-------|
A---3--3-------8--8-----6--6-----5--5-----3--3-------|
D--------------8--8-----6--6-----5--5-----3--3-------|

We will fight part
E-----------------------------------------|
B-----------------------------------------|
G--5----------------------------3---------|
D--5--(x8)--6---------1---------3--(x8)---|
A--3--------6--(x8)---1--(x8)---1---------|
D-----------6---------1-------------------|
Tap to rate this tab
 
# A B C D E F G H I J K L M N O P Q R S T U V W X Y Z