Song name
# A B C D E F G H I J K L M N O P Q R S T U V W X Y Z

Hollywood Undead - The Diary tab

-------------------------------------------------------------------------------
		       Hollywood Undead- The Diary
-------------------------------------------------------------------------------
Tabbed by: Brendan
Email: infinitezero95@aol.com

Tuning:Standard

    This is the violin part
 
                 you can play it like this
e|-17---12-13---12-10---13-12--10/8--8---12-10--8/7---4/7--10/13--12---|
B|--------------------------------------------------------------------o|
G|---------------------------------------------------------------------|
D|---------------------------------------------------------------------|
A|--------------------------------------------------------------------o|
E|---------------------------------------------------------------------|

      
                or like this
e|-17---12-13---12------13-12----------------------------------12-13---|
B|-----------------15--(18(17)-15/13--13---17-15--13/12---12-15-------o|
G|------------------------------------------------------13-------------|
D|---------------------------------------------------------------------|
A|--------------------------------------------------------------------o|
E|---------------------------------------------------------------------|
Tap to rate this tab
# A B C D E F G H I J K L M N O P Q R S T U V W X Y Z