Song name
# A B C D E F G H I J K L M N O P Q R S T U V W X Y Z

Hollywood Undead - Black Dahlia tab

----------------------------------------------------------------------------
			     Black Dahlia - Hollywood Undead
----------------------------------------------------------------------------
Tabbed by: JD09
Email: jeffdeslandes@gmail.com

Tuning: Standard

This first part is the intro which is some sort of strings but I tabbed it
out anyways.  Easy enough tab but fun to play along with the song. 

  xxxxxxxx xxxxxxxx xxxxxxxx xxxxxxxx
e|-----------------------------------------------|
B|------------------33333333-55555555------------|
G|---------22222222-22222222-44444444------------|
D|44444444-22222222-00000000-22222222------------|
A|44444444-00000000------------------------------|
E|22222222---------------------------------------|



  x x   xxxxxxx x   x x x x x   xxxxxxx x   x x x
e|-----------------------------------------------|
B|------------------------3-3---3333335-5---5-5-5|
G|------------2-2---2-2-2-2-2---2222224-4---4-4-4|
D|4-4---4444442-2---2-2-2-0-0---0000002-2---2-2-2|
A|4-4---4444440-0---0-0-0------------------------|
E|2-2---222222-----------------------------------|

Tap to rate this tab
# A B C D E F G H I J K L M N O P Q R S T U V W X Y Z