Song name
# A B C D E F G H I J K L M N O P Q R S T U V W X Y Z

Hollywood Undead - Circles tab

This is my first tab.
Im basing some of my song off of some other dudes tab here.
The song is in EADGBe standard tuning and on CAPO 3
if standard tuning doesnt sound all way right, tweek it down like a half step.

Main riff:
e|-----0-------0---|----1-------1---|----0-------0---|----0-------0---|
B|---1---1---1---1-|--1---1---1---1-|--1---1---1---1-|--0---0---0---0-|
G|-2-------2-------|2-------2-------|0-------0-------|1-------1-------|
D|-----------------|----------------|----------------|--------0---2---|
A|-0-----------2---|----------------|------------3---|2---------------|
E|-----------------|1---------------|3---------------|----------------|

play that for the whole song.

the riff for the piano/rythm guitar. (catchy background tune)

e|-5-------0-------|1---0-----------|----------------|----------------|
B|-----------------|--------3---3---|6-5----3-1-1--3-|-1-0------------|
G|-----------------|----------------|----------------|-------2--2---1-|
D|-----------------|----------------|----------------|----------------|
A|-----------------|----------------|----------------|----------------|
E|-----------------|----------------|----------------|----------------|


thats all i got for now. peace
Tap to rate this tab
# A B C D E F G H I J K L M N O P Q R S T U V W X Y Z