Song name
# A B C D E F G H I J K L M N O P Q R S T U V W X Y Z

Hollywood Undead - My Black Dahlia tab

-------------------------------------------------------------------------------
			     My Black Dahlia by Hollywood Undead
-------------------------------------------------------------------------------
Tabbed by: LycansCure
Email: LycansCure@aol.com

Tuning: Drop D

*I know how to play the original but I like to make slight adjustments to some parts. 
If you don't like this tab, not my problem. But please try it, I promise
it goes great with the original if you play it the right way.*
Quick Ex: 12x8---> 12 8 times

INTRO
e|---------------------------------------------------------------------------|
B|---------------------------------------------------------------------------|
G|---------------------------------------------------------------------------|
D|-44444444-77777777-00000000-22222222---------------------------------------| x4
A|---------------------------------------------------------------------------|
D|---------------------------------------------------------------------------|
   ******** ******** ******** ********  PM (Palm Mute)

VERSE 1
e|---------------------------------------------------------------------------|
B|---------------------------------------------------------------------------|
G|-44444444-77777777-12x8-11x4-9999------------------------------------------|
D|---------------------------------------------------------------------------|
A|---------------------------------------------------------------------------|
D|---------------------------------------------------------------------------|

e|---------------------------------------------------------------------------|
B|---------------------------------------------------------------------------|
G|-44444444-77777777-12x9-11x4-99--------------------------------------------|
D|---------------------------------------------------------------------------|
A|---------------------------------------------------------------------------|
D|---------------------------------------------------------------------------|

e|---------------------------------------------------------------------------|
B|---------------------------------------------------------------------------|
G|-4S-444444-7S-777777-12x8-11x4-9999----------------------------------------|
D|---------------------------------------------------------------------------|
A|---------------------------------------------------------------------------|
D|---------------------------------------------------------------------------|

e|---------------------------------------------------------------------------|
B|---------------------------------------------------------------------------|
G|-44444444-77777777-12x8-11x4-9999------------------------------------------|
D|---------------------------------------------------------------------------|
A|---------------------------------------------------------------------------|
D|---------------------------------------------------------------------------|

CHORUS 1
e|---------------------------------------------------------------------------|
B|---------------------------------------------------------------------------|
G|---------------------------------------------------------------------------| x2
D|-44--44444477--77700--00000022--222----------------------------------------|
A|-44--44444477--77700--00000022--222----------------------------------------|
D|-44--44444477--77700--00000022--222----------------------------------------|
     *         *      *         *
e|---------------------------------------------------------------------------|
B|---------------------------------------------------------------------------|
G|---------------------------------------------------------------------------| x2
D|-44444444777777770000000022222222------------------------------------------|
A|-44444444777777770000000022222222------------------------------------------|
D|-44444444777777770000000022222222------------------------------------------|


VERSE 2
e|---------------------------------------------------------------------------|
B|---------------------------------------------------------------------------|
G|-44444444-77777777-12x8-11x4-9999------------------------------------------|
D|---------------------------------------------------------------------------|
A|---------------------------------------------------------------------------|
D|---------------------------------------------------------------------------|

e|---------------------------------------------------------------------------|
B|---------------------------------------------------------------------------|
G|-44444444-77777777-12x9-11x4-99~-------------------------------------------|
D|---------------------------------------------------------------------------|
A|---------------------------------------------------------------------------|
D|---------------------------------------------------------------------------|

e|---------------------------------------------------------------------------|
B|---------------------------------------------------------------------------|
G|-4~444444-7~777777-12x8-11x4-9999------------------------------------------|
D|---------------------------------------------------------------------------|
A|---------------------------------------------------------------------------|
D|---------------------------------------------------------------------------|

e|---------------------------------------------------------------------------|
B|---------------------------------------------------------------------------|
G|-44444444-77777777-12x8-11x4-9999------------------------------------------|
D|---------------------------------------------------------------------------|
A|---------------------------------------------------------------------------|
D|---------------------------------------------------------------------------|

CHORUS 2
e|---------------------------------------------------------------------------|
B|---------------------------------------------------------------------------|
G|---------------------------------------------------------------------------| x4
D|-44--44444477--77700--00000022--222----------------------------------------|
A|-44--44444477--77700--00000022--222----------------------------------------|
D|-44--44444477--77700--00000022--222----------------------------------------|
     *         *      *         *

"Seems like all we've had is over now and left to rest..."

e|---------------------------------------------------------------------------|
B|---------------------------------------------------------------------------|
G|---------------------------------------------------------------------------|
D|-44444444-77777777-12x8-11x4-9999------------------------------------------|
A|---------------------------------------------------------------------------|
D|---------------------------------------------------------------------------|

e|---------------------------------------------------------------------------|
B|---------------------------------------------------------------------------|
G|---------------------------------------------------------------------------|
D|-44444444-77777777-00000000-22222222---------------------------------------|
A|---------------------------------------------------------------------------|
D|---------------------------------------------------------------------------|

e|---------------------------------------------------------------------------|
B|---------------------------------------------------------------------------|
G|---------------------------------------------------------------------------|
D|-44444444-77777777-12x8-11x4-9999-----------------------------------------
-|
A|---------------------------------------------------------------------------|
D|---------------------------------------------------------------------------|

e|---------------------------------------------------------------------------|
B|---------------------------------------------------------------------------|
G|---------------------------------------------------------------------------|
D|-44444444-77777777-00000000-2S---------------------------------------------|
A|---------------------------------------------------------------------------|
D|---------------------------------------------------------------------------|

CHORUS 3
e|---------------------------------------------------------------------------|
B|---------------------------------------------------------------------------|
G|---------------------------------------------------------------------------| x2
D|-44444444777777770000000022222222------------------------------------------|
A|-44444444777777770000000022222222------------------------------------------|
D|-44444444777777770000000022222222------------------------------------------|

e|---------------------------------------------------------------------------|
B|---------------------------------------------------------------------------|
G|---------------------------------------------------------------------------| x4
D|-44-444-477-777-700-000-022-222-2------------------------------------------|
A|-44-444-477-777-700-000-022-222-2------------------------------------------|
D|-44-444-477-777-700-000-022-222-2------------------------------------------|
   ** *** *** *** *** *** *** *** *

OUTRO
e|---------------------------------------------------------------------------|
B|---------------------------------------------------------------------------|
G|---------------------------------------------------------------------------|
D|-44444444-77777777-12x8-11x4-9999------------------------------------------|
A|---------------------------------------------------------------------------|
D|---------------------------------------------------------------------------|

e|---------------------------------------------------------------------------|
B|---------------------------------------------------------------------------|
G|---------------------------------------------------------------------------|
D|-44444444-77777777-00000000-22222222---------------------------------------|
A|---------------------------------------------------------------------------|
D|---------------------------------------------------------------------------|

e|---------------------------------------------------------------------------|
B|---------------------------------------------------------------------------|
G|---------------------------------------------------------------------------|
D|-44444444-77777777-12x8-11x4-9999-----------------------------------------
-|
A|---------------------------------------------------------------------------|
D|---------------------------------------------------------------------------|

e|---------------------------------------------------------------------------|
B|---------------------------------------------------------------------------|
G|---------------------------------------------------------------------------|
D|-44444444-77777777-00000000-2~---------------------------------------------|
A|---------------------------------------------------------------------------|
D|---------------------------------------------------------------------------|



************************************

| /   slide up
| \   slide down
| h   hammer-on
| p   pull-off
| ~   vibrato
| +   harmonic
| x   Mute note
| b   Bend
| pb  Pre-bend
| br  Bend release
| pbr Pre-bend release
| brb Bend release bend
| S   Sustain
************************************
Tap to rate this tab
 
# A B C D E F G H I J K L M N O P Q R S T U V W X Y Z