Song name
# A B C D E F G H I J K L M N O P Q R S T U V W X Y Z

Hollywood Undead - Hear Me Now tab

Hollywood undead hear me now 
Not sure about the intro so u guys can let me know if its wrong

Drop D (Dadgbe)
Intro part1
|2-2---2---2---2---2---2---2---2-------------|
|----2---3---5-------5---3---2---2p3---------|
|----------------2---------------------------|
|--------------------------------------------|  
|--------------------------------------------|
|--------------------------------------------|
Intro until verse

Verse part 2
|2---------5----0----------------------------|
|2---3----5----0----------------------------|
|2----5----5----0----------------------------|
|-----5--------------------------------------|
|--------------------------------------------|
|--------------------------------------------|

find out the strum ur self;)

chorus: same as verse;)
|2---------5----0----------------------------|
|2---3----5----0----------------------------|
|2----5----5----0----------------------------|
|-----5--------------------------------------|
|--------------------------------------------|
|--------------------------------------------|
Tap to rate this tab
 
# A B C D E F G H I J K L M N O P Q R S T U V W X Y Z