Song name
# A B C D E F G H I J K L M N O P Q R S T U V W X Y Z

Hollywood Undead - Been To Hell tab

People have been slaughtering the main riff in this song so I thought I'd tab it 
properly. Here we go

In Drop D


Intro & Main Riff:

e|-------------------------------------------------|
B|-------------------------------------------------|
G|-------------------------------------------------|
D|--2-x-2~-----9/10-9-3-5/12-----------------------|
A|--2-x-2~-----9/10-9-3-5/12-----------------------|
D|--2-x-2~-----9/10-9-3-5/12-----------------------|


Verse:

e|-------------------------------------------------|
B|-------------------------------------------------|
G|-------------------------------------------------|
D|---222-----222~--x-x-----------------------------|
A|---222--x3-222~--x-x-----------------------------|
D|---222-----222~--x-x-----------------------------|


e|-------------------------------------------------|
B|-------------------------------------------------|
G|------------------------------x-x-x-x------------|
D|--222-------------------222~--x-x-x-x------------|
A|--222-2-0-------0---x3--222~--x-x-x-x------------|
D|--222-----5~-2-5--------222~--x-x-x-x------------|

Chorus:

e|-------------------------------------------------|
B|-------------------------------------------------|
G|-------------------------------------------------|
D|--222~-22/5-55-0~-000--222~-22/5-55-7~-777-------|x2
A|--222~-22/5-55-0~-000--222~-22/5-55-7~-777-------|
D|--222~-22/5-55-0~-000--222~-22/5-55-7~-777-------|
Tap to rate this tab
# A B C D E F G H I J K L M N O P Q R S T U V W X Y Z