Song name
# A B C D E F G H I J K L M N O P Q R S T U V W X Y Z

Hollywood Undead - Coming Back Down tab

-------------------------------------------------------------------------------
			     COMING BACK DOWN - Hollywood Undead
-------------------------------------------------------------------------------
Tabbed by: welshmark96
Email: danieltjames@gmail.com

Tuning:standard (EADGBe)

this is pretty much it for the whole song. 

     G        D       A       Bm
e|---------------------------------------------------------------------------|
B|----3-------3-------3-------3----------------------------------------------|
G|--0---0---2---2---2---2---4---4--------------------------------------------|
D|--------0------------------------------------------------------------------|
A|----------------0-------2--------------------------------------------------|
E|3--------------------------------------------------------------------------|

or you can just play the chords:

    G (x4)   D (x4)   A (x4)   Bm (x4)   
e|--3--------2--------0--------2---------------------------------------------|
B|--3--------3--------3--------3---------------------------------------------|
G|--0--------2--------2--------4---------------------------------------------|
D|--0--------0--------2--------4---------------------------------------------|
A|--2-----------------0--------2---------------------------------------------|
E|--3------------------------------------------------------------------------|
Tap to rate this tab
 
# A B C D E F G H I J K L M N O P Q R S T U V W X Y Z